Oops, an error
Loading. Please wait.

Soldiers Poem Bass Tab

version 1
version 1

Whole song

by Muse
5,924 views 12 this week
no commentswrite comment
1 2 3 4 5
worth learning
x 5
add to favorites
launch autoscroll
font size
0
reset
guitar tuner
Tab Pro tools
  • play this tab
  • loop segment
  • change instrument
  • show fretboard
  • metronome
Autoscroll
slow
fast
+/-
esc
set tempo
stop
Contributor
Difficulty
novice
Artist: Muse

Album: Black Holes & Revelations

Song: Soldier's Poem


Intro
              
G|--------------|--------------|
D|--------7--7--|--------7--7--|
A|---5--5-------|---5--5-------|
E|--------------|--------------|

Verse

G|-------------|-------------|-------------|-----------------|
D|-------7--7--|-------------|-------------|-----------------|
A|--5--5-------|-------7--7--|-------5--5--|--5--5-4--4--2---|
E|-------------|--5--5-------|--3--3-------|-----------------|


G|-------------|-------4--4--|-------4--4--|---------------|
D|-------4--4--|--2--2-------|--2--2-------|--2--2-0--0----|
A|--2--2-------|-------------|-------2--2--|---------------|
E|-------------|-------------|-------------|---------------|

                         x2
G|-------------|-------------||
D|-------2--2--|-------2--2--||
A|--0--0-------|--0--0-------||
E|-------------|-------------||


G|----------------------------------|---------------------------------------------------------|
D|----------------------------4--4--|--5--5-------5--5-5--5-------4--4--5--5-5--5--7--7-------|
A|--5--5-2--2--0--0-0-0--2--2-------|-------5--5-------------5--5-----------------------------|
E|----------------------------------|---------------------------------------------------5--5--|


G|-------------|-------------|-----------|
D|-------7--7--|-------7--7--|-----------|
A|--5--5-------|--5--5-------|--5--------|
E|-------------|-------------|-----------|

Tab by: Pedro Zappa
comments
print report bad tab
I want to post or [tab]
guest
You may want to rate the tab now too:
select rating
Please do not post tabs as comments. Select "correction" instead!