Oops, an error
Loading. Please wait.

Soldiers Poem Tab

version 1
version 1

Whole song

  • This is the live version featured in HAARP, with the capo on the 5th fret.
by Muse
95,383 views 129 this week
12 commentsread comments
1 2 3 4 5
x 57
add to favorites
launch autoscroll
font size
0
reset
how to read this tab
guitar tuner
Autoscroll
slow
fast
+/-
esc
set tempo
stop
Help us to improve Ultimate-Guitar.com Take our survey!
×
Capo
2nd fret
Song: SOldier's Poem
Artist: Muse
Album: BHaR
Capo at the second fret

e|--------0---------|
B|------1---1-------|
G|----0-------------|
D|------------------|     x4
A|--3---------------|
E|------------------|

  Throw it all....                                ...away, let's lose...
e|--------0-----------0------------1----------1----------1-----------1-----|
B|------1---1-------1---1--------0---0------0---0------1---1--------1--1---|
G|----0------0----0-------0----0-------0--0------0---1-------1----1-----1--|
D|-------------------------------------------------------------------------|
A|--3----------3-----------------------------------------------------------|
E|--------------------------3-----------3----------1------------1----------|

...ourselves
e|---------0------------0--------|
B|-------1---1--------0---0------|
G|-----0-------0----1------------|
D|-------------------------------|
A|---3---------------------------|
E|----------------0--------------|

...Cause there's no one  left   for   us   to
e|--------0----------0---------1-----------1--------------|
B|------1---1------1---1-----3---3-------3---3------------|
G|----2----------2---------2-------2---2-------2----------|
D|-----------------------0-----------0--------------------|
A|--0----------0------------------------------------------|
E|--------------------------------------------------------|

...Blame, it's a shame       we're all dying
e|--------1------------3------------1-----------1-----------|
B|------3---3--------2---2--------1---1-------1---1---------|
G|----2-------2----2-------2----2-------2---2-------2-------|
D|--0-------------------------------------------------------|
A|---------------0------------------------------------------|
E|----------------------------1-----------1-----------------|

...And do yo think you deserve your freedom?
e|---------3-----------3------------3-----------3-----------|
B|-------3---3-------3---3--------3---3-------3---3---------|
G|-----4-------4---4------4-----4-------4---4-------4-------|
D|----------------------------------------------------------|
A|----------------------------------------------------------|
E|---3-----------3------------3-----------3-----------------|

The second verse it's played the same way:

How could you send us all far away from home
When you know damn well that this is all
I would still lay down my life for you
And do you think you deserve your freedom

Then the las part of the song:

...No          ..I   don't      think you
e|----------0-----------0-----------0-----------0--------|
B|--------1---1-------1---1-------3---3-------3---3------|
G|------0-------0---2-------2---0-------0---0-------0----|
D|-------------------------------------------------------|
A|----3-----------0--------------------------------------|
E|----------------------------3-----------3--------------|

...do                        ...There's no justice
e|--------0-----------0------------1----------1-------|
B|------1---1-------1---1--------1---1------1---1-----|
G|----2-------2---2-------2----2------2---2-------2---|
D|----------------------------------------------------|
A|--0-----------0-------------------------------------|
E|---------------------------1----------1-------------|

...in                       the         world
e|--------1-----------1------------0-----------0-------|
B|------1---1-------1---1--------1---1-------1---1-----|
G|----2-------2---1-------1----0-------0---0-------0---|
D|-----------------------------------------------------|
A|---------------------------3-----------3-------------|
E|--1-----------1--------------------------------------|

...There's no justice in the world
e|--------1-----------1-----------3----------3----------|
B|------1---1-------1---1-------3---3------3---3--------|
G|----2-------2---2-------2---4------4---4-------4------|
D|------------------------------------------------------|
A|------------------------------------------------------|
E|--1-----------1-----------3----------3----------------|

...And there never was
e|----------0-----------|      |--3--|
B|--------1---1---------|      |--1--|
G|------0-------0-------| x4   |--0--|
D|----------------------|      |--2--|
A|----3-----------------|      |--3--|
E|----------------------|      |-----|
Suggest correction
comments
print report bad tab
12 comments total. Showing first comments.
+2 reply
yawn 182 Jun 23, 2006 09:30 PM

Awesome!!! =D

Nice work. This is sweet \m/

0 reply
Gaz_m2k5 240 Jul 22, 2006 12:23 PM

perfect.

0 reply
=bert= 199 Jul 23, 2006 09:31 AM

not quite perfect! the bit where its "we're all dying here" is not that chord, it sounds very wrong when played along. not sure what the proper chord is though so not much help really... apart from that spot on

guest
You may want to rate the tab now too:
select rating
Wanna post a correction for this tab? Suggest correction