Oops, an error
Loading. Please wait.

Soldiers Poem Bass Tab

version 2
version 2

Whole song

by Muse
1,477 views 1 this week
no commentswrite comment
1 2 3 4 5
accurate
x 3
add to favorites
launch autoscroll
font size
0
reset
guitar tuner
Tab Pro tools
  • play this tab
  • loop segment
  • change instrument
  • show fretboard
  • metronome
×
Best way to learn
"Soldiers Poem"
Autoscroll
slow
fast
+/-
esc
set tempo
stop
Contributor
Difficulty
novice
Intro           
G|-------------|-------------|
D|--------7--7-|--------7--7-|
A|---5--5------|---5--5------|
E|-------------|-------------|

Verse x2
G|------------|------------|------------|------------|
D|-------7--7-|------------|------------|------------|
A|--5--5------|-------7--7-|-------5--5-|--5--5-4--4-|
E|------------|--5--5------|--3--3------|------------|

G|------------|------------|------------|------------|
D|------------|-------9--9-|------------|------------|
A|-------9--9-|--7--7------|--7--7------|--7--7-5--5-|
E|--7--7------|------------|-------9--9-|------------|
                         
G|------------|------------|
D|------------|------------|
A|-------7--7-|-------7--7-|
E|--5--5------|--5--5------|

Ending
G|------------|------------|------------|----------------|----------------|
D|------------|------------|------------|----------------|----------------|
A|--5--5------|------------|-------9--9-|--10--10--------|--10--10-10--10-|
E|-------7--7-|--5--5-5--5-|--7--7------|---------10--10-|----------------|

G|-------------|---------------|--------------|-----------|----------------||
D|-------------|---------------|--------------|------7--7-|-------7--7-----||
A|--------9--9-|-10--10-10--10-|--12--12-7--7-|-5--5------|--5--5-------5--||
E|-10--10------|---------------|--------------|-----------|----------------||

I tab this from a youtube video here is the link:http://www.youtube.com/watch?v=oTK2oqyhkGw
comments
We did not receive enough feedback on this tab! Please rate:
print report bad tab
1 2 3 4 5
I want to post or [tab]
guest
You may want to rate the tab now too:
select rating
Please do not post tabs as comments. Select "correction" instead!