Oops, an error
Loading. Please wait.

Soldiers Poem Tab

version 3
version 3

Whole song

  • This is the live version featured in HAARP, with the capo on the 5th fret.
by Muse
20,488 views 24 this week
4 commentsread comments
1 2 3 4 5
x 16
add to favorites
launch autoscroll
font size
0
reset
how to read this tab
guitar tuner
Autoscroll
slow
fast
+/-
esc
set tempo
stop
Help us to improve Ultimate-Guitar.com Take our survey!
×
Difficulty
novice
e|--------0-----------0-----------0-----------0-----|
B|------1---1-------1---1-------1---1-------1---1---|
G|----0-------0---0-------0---0-------0---0-------0-|
D|--------------------------------------------------|
A|--3-----------------------3-----------------------|
E|--------------3-----3-----------------3-----3-----|
                              
    Throw             it    all                  a-
e|--------0-----------0-----------1-----------1-----|
B|------1---1-------1---1-------0---0-------0---0---|
G|----0-------0---0-------0---0-------0---0-------0-|
D|--------------------------------------------------|
A|--3-----------3-----------------------------------|
E|--------------------------3-----------3-----------|

    way.              Let's  lose ourselves      cause there's
e|--------1-----------1-----------0-----------0-----|
B|------1---1-------1---1-------1---1-------0---0---|
G|----2-------2---1-------1---0-------0---1-------1-|
D|--------------------------------------------------|
A|--------------------------3-----------------------|
E|--1-----------1-----------------------0-----------|

    no         one          left   for us    to 
e|--------0-----------0-----------1-----------1-----|
B|------1---1-------1---1-------3---3-------3---3---|
G|----2-------2---2-------2---2-------2---2-------2-|
D|--------------------------0-----------------------|
A|--0-----------0-----------------------0-----------|
E|--------------------------------------------------|

  blame.  It's a shame we're all dying.       And do
e|--------1-----------3-----------1-----------1-----|
B|------3---3-------2---2-------3---3-------1---1---|
G|----2-------2---2-------2---2-------2---2-------2-|
D|--0-----------------------0-----------------------|
A|--------------0-----------------------------------|
E|--------------------------------------1-----------|

    you         think you deserve your  freedom?
e|--------3-----------3-----------3-----------3-----|
B|------3---3-------3---3-------3---3-------3---3---|
G|----4-------4---4-------4---4-------4---4-------4-|
D|--------------------------------------------------|
A|--------------------------------------------------|
E|--3-----------3-----------3-----------3-----------|

    How           could you send              us  
e|--------0-----------0-----------1-----------1-----|
B|------1---1-------1---1-------0---0-------0---0---|
G|----0-------0---0-------0---0-------0---0-------0-|
D|--------------------------------------------------|
A|--3-----------3-----------------------------------|
E|--------------------------3-----------3-----------|

    all               far away from home?       When you
e|--------1-----------1-----------0-----------0-----|
B|------1---1-------1---1-------1---1-------0---0---|
G|----2-------2---1-------1---0-------0---1-------1-|
D|--------------------------------------------------|
A|--------------------------3-----------------------|
E|--1-----------1-----------------------0-----------|

    know        damn        well   that this  is 
e|--------0-----------0-----------1-----------1-----|
B|------1---1-------1---1-------3---3-------3---3---|
G|----2-------2---2-------2---2-------2---2-------2-|
D|--------------------------0-----------------------|
A|--0-----------0-----------------------0-----------|
E|--------------------------------------------------|

   all. I would still lay down my life for you, and do
e|--------1-----------3-----------1-----------1-----|
B|------3---3-------2---2-------3---3-------1---1---|
G|----2-------2---2-------2---2-------2---2-------2-|
D|--0-----------------------0-----------------------|
A|--------------0-----------------------------------|
E|--------------------------------------1-----------|

    you         think you deserve your  freedom?
e|--------3-----------3-----------3-----------3-----|
B|------3---3-------3---3-------3---3-------3---3---|
G|----4-------4---4-------4---4-------4---4-------4-|
D|--------------------------------------------------|
A|--------------------------------------------------|
E|--3-----------3-----------3-----------3-----------|

    No               I don't think            you 
e|--------0-----------0-----------3-----------3-----|
B|------1---1-------1---1-------3---3-------3---3---|
G|----0-------0---2-------2---0-------0---0-------0-|
D|--------------------------------------------------|
A|--3-----------0-----------------------------------|
E|--------------------------3-----------3-----------|

    do.                      There's no justice
e|--------0-----------0------------1----------1-----|
B|------1---1-------1---1--------1---1------1---1---|
G|----2-------2---2-------2----2------2---2-------2-|
D|--------------------------------------------------|
A|--0-----------0-----------------------------------|
E|---------------------------1----------1-----------|

    In                   the world             There's no
e|--------1-----------1-----------0-----------0-----|
B|------1---1-------1---1-------1---1-------1---1---|
G|----2-------2---1-------1---0-------0---0-------0-|
D|--------------------------------------------------|
A|--------------------------3-----------3-----------|
E|--1-----------1-----------------------------------|

    ju-         stice in the world        And there never
e|--------1-----------1-----------3-----------3-----|
B|------1---1-------1---1-------3---3-------3---3---|
G|----2-------2---1-------1---4-------4---4-------4-|
D|--------------------------------------------------|
A|--------------------------------------------------|
E|--1-----------1-----------3-----------3-----------|
 
      was.
e|--------0-----------0-----------0-----------0-----3--|
B|------1---1-------1---1-------1---1-------1---1---1--|
G|----0-------0---0-------0---0-------0---0-------0-0--|
D|--------------------------------------------------2--|
A|--3-----------------------3-----------------------3--|
E|--------------3-----3-----------------3--------------|
Suggest correction
comments
print report bad tab
4 comments total. Showing first comments.
0 reply
.*Tom*. 10 Nov 29, 2007 08:27 PM

Perfect!

0 reply
FinderofNemo 337 Jan 02, 2008 07:03 PM

Sweet tab

+2 reply
Dr. Ed 41 Sep 10, 2008 01:02 AM

You forgot the capo on the second fret part, but honestly, I'm so impressed! I could even ignore the capo part, I mean hell, not all of us have amazing high ranges like Matthew Bellamy

guest
You may want to rate the tab now too:
select rating
Wanna post a correction for this tab? Suggest correction