Oops, an error
Loading. Please wait.

Space Dementia Bass Tab

version 2
version 2

Whole song

by Muse
1,794 views 9 this week
no commentswrite comment
1 2 3 4 5
x 3
add to favorites
launch autoscroll
font size
0
reset
guitar tuner
Autoscroll
slow
fast
+/-
esc
set tempo
stop
Help us to improve Ultimate-Guitar.com Take our survey!
×
Author
Difficulty
novice
Band: Muse
Song: Space Dementia
Album: Origin of Symmetry (2001)
Bassist: Chris Wolstenholme
Tuning: Standard

Saw some mistakes in previous tab, especially in verse and chorus.

No bass till [0:42] 
Intro:

G|-------------------|
D|-------------------|
A|-------------------|
E|0(x32)-------------| Fade in

Verse:

G|-----------------------------------------------------------------------|
D|-----------------------------------------------------------------------|
A|7(x32)--9(x32)--10(x32)--12(x28)-------2(x16)--4(x16)--5(x16)--6(x16)--|
E|----------------------------------12\----------------------------------|

Bridge:

G|-------------------|-------------------|
D|-------------------|-------------------|
A|-------------------|-------------------|
E|0~-----------------|0(x16)--Fade in----| 

Play verse again: 

Pre-chorus:

G|--9---9---8---8---7---7---6---6---5---5---4---4-|
D|------------------------------------------------|
A|7---7---6---6---5---5---4---4---3---3---2---2---|
E|------------------------------------------------|

Chorus:

G|--9----11----12----13----14----16----17----18--|
D|-----------------------------------------------|
A|7----9----10----11----12----14----15----16-----|
E|-----------------------------------------------|

G|--7----9----10----11----12----14----15----17---|
D|-----------------------------------------------|
A|5----7----8-----9----10----12----13----15------|
E|-----------------------------------------------|

G|--5----7----8----9----11----9----7----6--------|
D|-----------------------------------------------|
A|3----5----6----7----9-----7----5----4----------|
E|-----------------------------------------------|

G|--4----6----7----8----9----9----9----9---------|
D|-----------------------------------------------|
A|2----4----5----6----7----7----7----7-----------|
E|-----------------------------------------------|

G|-----10---------10---------11---------11-------|
D|--10----10---10----10---11----11---11----11----|
A|8----------8----------9----------9-------------|
E|-----------------------------------------------|

G|------16----------16---------------------------|
D|---16----16----16----16------------------------|
A|14----------14----------14---------------------|
E|-----------------------------------------------|

G|4-2-0------------------------------------------|
D|------4-3-2-1-0--------------------------------|
A|----------------4-3-2-1------------------------|
E|------------------------4-3-2-1-0~-------------|

Now play Bridge:
Verse:
Pre-chorus:
Chorus except last two bars:

Last bar of second Chorus:

G|------16----------16----------16----------16----|
D|---16----16----16----16----16----16----16----16-|
A|14----------14----------14----------14----------|
E|------------------------------------------------|

Part before Outro:

G|---16----16----16----16----15----15----15----15-|
D|------------------------------------------------|
A|14----14----14----14----13----13----13----13----|
E|------------------------------------------------| x3

G|---17----17----17----17----16----16----16----16-|
D|------------------------------------------------|
A|15----15----15----15----14----14----14----14----|
E|------------------------------------------------|

G|---15----15----15----15----14----14----14----14-|
D|------------------------------------------------|
A|13----13----13----13----12----12----12----12----|
E|------------------------------------------------|

G|---14----14----14----14-------------------------|
D|------------------------------------------------| 
A|12----12----12----12----------------------------|
E|------------------------8~----------------------|

Outro:

Not really sure but heard only 4 notes.
Anyway - use Your own variations

G|------------------------| 
D|------------------------|  
A|------------------2~----| 
E|0~----8~----2~----------|

G|------------------------|
D|------------------------|
A|------------9~----------|
E|0~----8~----------7~----|

G|------------------------|
D|------------------------|  
A|------------------------|      
E|0~----------------------|

/  slide up
\  slide down
h  hammer-on
p  pull-off
~  let ring
Suggest correction
Give kudos to tab author, rate the tab!
1 2 3 4 5
comments
print report bad tab
guest
You may want to rate the tab now too:
select rating
Wanna post a correction for this tab? Suggest correction