Oops, an error
Loading. Please wait.

Spiral Static Bass Tab

version 1
version 1

Whole song

Interactive

by Muse
1,545 views 3 this week
no commentswrite comment
1 2 3 4 5
2 more votes to show rating
add to favorites
launch autoscroll
font size
0
reset
guitar tuner
Autoscroll
slow
fast
+/-
esc
set tempo
stop
Help us to improve Ultimate-Guitar.com Take our survey!
×
Author
Difficulty
intermediate
Band: Muse
Song: Spiral Static
Album: Plug In Baby Single CD2/ Showbiz (Japan)
Bassist: Chris Wolstenholme
Tuning: Standard

Just corrected some major mistakes. Song is 6/4.
Every bend in this song is 1/4. 
+ means quarter note

No bass till [0:24]

Intro (main riff):

  +    +    +    +    +    +     +    +    +    +    +    +
G|------------------------------|-----------------------------v-|
D|------------------------------|-------------------------42454-|
A|-----b--------------b---------|-----b--------------b----------|
E|0-03(3)-0-0000-0-03(3)-0-0000-|2-25(5)-2-2222-2-25(5)---------| x2

  +    +    +    +    +    +     +    +    +    +    +    +
G|------------------------------|-------------------------------|
D|------------------------------|-------------------------------|
A|-----b--------------b---------|-----b-------------------------|
E|0-03(3)-0-0000-0-03(3)-0-0000-|2-25(5)-2-2222-2~--------------| 

  +    +    +    +    +    +
G|------------------------------|
D|------------------------------|
A|0~----------------------------|
E|------------------------------|

No bass till [1:05]

Verse:

  +   +   +   +   +   +    +   +   +   +   +   +
G|------------------------|------------------------|
D|7--5-67--5-67--5-67--5-6|9--7-89--7-89--7-89--7-8|
A|--7-----7-----7-----7---|--7-----7-----7-----7---|
E|------------------------|------------------------| 

  +      +     +      +    +    +     +   +   +   +   +   +
G|-----------------------------------|------------------------| 
D|12---10-1112---10-1110--7-910--7-10|9--7-89--7-8------------|  
A|---12--------12--------7------7----|--7-----7---7-5---5-----| 
E|-----------------------------------|----------------8---8-7-|

Last 6 notes were only my interpretation how to play that.
Not sure about them.


Pre-chorus:

  +   +   +   +   +   +    +   +   +   +   +   +
G|------------------------|------------------------|
D|------------------------|------------------------|
A|------------------------|------------------------|
E|555555555555888888888888|777777777777777777777777|

  +   +   +   +   +   +    +   +   +   +   +   +
G|------------------------|------------------------|
D|------------------------|------------------------|
A|------------------------|------------------------|
E|555555555555888888888888|777777555555333333222222|

Chorus:

  +    +    +    +    +    +     +    +    +    +    +    +
G|------------------------------|-----------------------------v-|
D|------------------------------|-------------------------42454-|
A|-----b--------------b---------|-----b--------------b----------|
E|0-03(3)-0-0000-0-03(3)-0-0000-|2-25(5)-2-2222-2-25(5)---------|

  +    +    +    +    +    +     +    +    +    +    +    +
G|------------------------------|-------------------------------|
D|------------------------------|-------------------------------|
A|-----b--------------b---------|-----b-------------------------|
E|0-03(3)-0-0000-0-03(3)-0-0000-|2-25(5)-2-2222-2~--------------| 

  +    +    +    +    +    +
G|------------------------------|
D|------------------------------|
A|0~----------------------------|
E|------------------------------|

No bass till [2:09]

Play verse and pre-chorus again:

Chorus:

  +    +    +    +    +    +     +    +    +    +    +    +
G|------------------------------|-----------------------------v-|
D|------------------------------|-------------------------42454-|
A|-----b--------------b---------|-----b--------------b----------|
E|0-03(3)-0-0000-0-03(3)-0-0000-|2-25(5)-2-2222-2-25(5)---------| x4

  +    +    +    +    +    +
G|------------------------------|
D|------------------------------|
A|------------------------------|
E|0~----------------------------|

Play chorus 4 times again and finish this with note on open A string.

Enjoy guitar outro.

b  bend
v  vibrato
/  slide up
\  slide down
h  hammer-on
p  pull-off
~  let ring
Suggest correction
Give kudos to tab author, rate the tab!
1 2 3 4 5
comments
print report bad tab
guest
You may want to rate the tab now too:
select rating
Wanna post a correction for this tab? Suggest correction