Oops, an error
Loading. Please wait.

Spiral Static Bass Tab

version 2
version 2

Whole song

Interactive

by Muse
899 views 1 this week
no commentswrite comment
1 2 3 4 5
please rate
add to favorites
launch autoscroll
font size
0
reset
guitar tuner
Autoscroll
slow
fast
+/-
esc
set tempo
stop
Help us to improve Ultimate-Guitar.com Take our survey!
×
Author
Difficulty
intermediate
Intro/Chorus                                  _____________  ______________
                                             |1.            |2.
G|--------------|-------------|--------------|--------------|--------------|
D|-------2------|-------2-----|-------4------|-------42454~~|--------------|
A|--------------|-------------|--------------|--------------|--------------|
E|0-03-3---303~~|0-03-3--303~~|2-25-5---525~~|2-25-5--------|2~~~~~~~~~~~~~|
For intro, ending1 x2 then ending2 x1
For 1st chorus, ending1 x1 then ending2 x2
For 2nd AND 3rd chorus, ending1 x4

Verse part1
G|--------------|
D|--------------|
A|--------------|
E|5~~~~~~~~~~~~~|

Verse Part2 (listen for when to come in)
G|------------------------|------------------------|
D|7--5-67--5-67--5-67--5-6|9--7-89--7-89--7-89--7-8|
A|--7-----7-----7-----7---|--7-----7-----7-----7---|
E|------------------------|------------------------|

G|-----------------------------------|-------------------------|
D|12---10-1112---10-1110--7-910--7-10|9--7-89--7-89--7-89------|
A|---12--------12--------7------7----|--7-----7-----7-----7-109|
E|-----------------------------------|-------------------------|

Pre-chorus
G|------------|------------|------------|------------|
D|------------|------------|------------|------------|
A|------------|------------|------------|------------|
E|000000000000|333333333333|222222222222|222222222222|

G|------------|------------|------------|------------|
D|------------|------------|------------|------------|
A|------------|------------|------------|------------|
E|000000000000|333333333333|777777555555|333333222222|

Bridge
G|------------|
D|------------|
A|------------|
E|0~~~~~~~~~~~|

Outro
G|------------|
D|------------|
A|------------|
E|5~~~~~~~~~~~|
Suggest correction new What's this?
You can suggest a correction to this tab. Community and Mods will review your correction and vote to approve or reject it.
comments
We did not receive enough feedback on this tab! Please rate:
print report bad tab
1 2 3 4 5
guest
You may want to rate the tab now too:
select rating
Please do not post tabs as comments. Select "correction" instead!