Oops, an error
Loading. Please wait.

Starlight Bass Tab

version 1
by Muse
248,510 views 195 this week
51 commentsread comments
1 2 3 4 5
excellent!
x 117
add to favorites
launch autoscroll
font size
0
reset
guitar tuner
Tab Pro tools
  • play this tab
  • loop segment
  • change instrument
  • show fretboard
  • metronome
×
Best way to learn
"Starlight"
Autoscroll
slow
fast
+/-
esc
set tempo
stop
Contributor
Difficulty
intermediate
Starlight
Album: Black Holes and Revelations
Song by: Muse (Matthew Bellamy, Chris Wolstenholme & Dominic Howard)
Tabbed by: Sam Hood
Tuning: Standard (EADG)
Rather rough tab by ear, I will refine it at a later date.

Intro
G|-----------------|
D|-----------------|  x4
A|-----------------|
E|-7-7-7-7-7-7-7-7-|


Verse
G|---------------------------------              |
D|---------------------------------              |
A|-------------------------------9-              |
E|-7-7-7-7-7-7-7-7-9-9-9-9-9-7-9---              |
                                                 | x10
G|-----------------------------------------      |
D|-----------------------------------------      |
A|-11-11-11-11-11-11-11-11-7-7-7-7-7-6-7-9-      |
E|-----------------------------------------      |


Chorus
G|----------------------------------------------|
D|----------------------------------------------|
A|-4--4--4--4-------------6--6--6--6------------|
E|------------2--2--2--2-------------4--4--4--4-|

G|----------------------------------------------|
D|----------------------------------------------|
A|-0--0--0--0-------------0--0--0--0-6--6--6--6-|
E|------------0--0--0--0------------------------|

G|---
D|---
A|---
E|-4-


Bridge(Steadily louder)
G|-----------------------------------------------------------------|
D|-----------------------------------------------------------------|
A|-----------------6-6-6-6-6-6-6-6-4-4-4-4-4-4-4-4-2-2-2-2-2-2-2-2-|
E|-4-4-4-4-4-4-4-4-------------------------------------------------|

G|-----------------------------------------------------------------|
D|-----------------------------------------------------------------|
A|-----------------6-6-6-6-6-6-6-6-7-7-7-7-7-7-7-7-9-9-9-9-9-9-9-9-|
E|-4-4-4-4-4-4-4-4-------------------------------------------------|


Repeat Intro
G|-----------------|
D|-----------------|  x4
A|-----------------|
E|-7-7-7-7-7-7-7-7-|


Verse
G|---------------------------------              |
D|---------------------------------              |
A|-------------------------------9-              |
E|-7-7-7-7-7-7-7-7-9-9-9-9-9-7-9---              |
                                                 | x4
G|-----------------------------------------      |
D|-----------------------------------------      |
A|-11-11-11-11-11-11-11-11-7-7-7-7-7-6-7-9-      |
E|-----------------------------------------      |


2nd Chorus
G|----------------------------------------------|
D|----------------------------------------------|
A|-4--4--4--4-------------6--6--6--6------------|
E|------------2--2--2--2-------------4--4--4--4-|

G|----------------------------------------------|
D|----------------------------------------------|
A|-0--0--0--0-------------0--0--0--0-6--6--6--6-|
E|------------0--0--0--0------------------------|

G|----------------------------------------------|
D|----------------------------------------------|
A|------------6--6--6--6--7--7--7--7-2--2--2--2-|
E|-4--4--4--4-----------------------------------|

G|----------------------------------------------|
D|----------------------------------------------|
A|------------6--6--6--6--7--7--7--7-2--2--2--2-|
E|-4--4--4--4-----------------------------------|

G|---------------------------------------------------------------|
D|---------------------------------------------------------------|
A|----------------6-6-6-6-6-6-6-6-7-7-7-7-7-7-7-72-2-2-2-2-2-2-2-|
E|-4-4-4-4-4-4-4-4-----------------------------------------------|

G|---------------------------------------------------------------|
D|---------------------------------------------------------------|
A|----------------6-6-6-6-6-6-6-6-7-7-7-7-7-7-7-79-9-9-9-9-9-9-9-|
E|-4-4-4-4-4-4-4-4-----------------------------------------------|


Outro
G|---------------------------------              |
D|---------------------------------              |
A|-------------------------------9-              |
E|-7-7-7-7-7-7-7-7-9-9-9-9-9-7-9---              |
                                                 | x3
G|-----------------------------------------      |
D|-----------------------------------------      |
A|-11-11-11-11-11-11-11-11-7-7-7-7-7-6-7-9-      |
E|-----------------------------------------      |

G|----
D|----
A|----
E|-7~-
comments
print report bad tab
51 comments total. Showing first comments. show 2 bad comments
+1 reply
DSOTM wrote on July 1 2006, 09:33 am

If you hadn't posted this I would've posted one exactly the same. Well Done. It's good to see some people who know their MUSE.

I want to post or [tab]
guest
You may want to rate the tab now too:
select rating
Please do not post tabs as comments. Select "correction" instead!