Oops, an error
Loading. Please wait.

Starlight Tab

version 1
by Muse
124,265 views 27 this week
6 commentsread comments
1 2 3 4 5
x 16
add to favorites
launch autoscroll
font size
0
reset
how to read this tab
guitar tuner
Autoscroll
slow
fast
+/-
esc
set tempo
stop
Help us to improve Ultimate-Guitar.com Take our survey!
×
Author
Difficulty
novice
Since this is such a good intro, I've decided to tab it. I've discovered four ways of 
it so i'm gonna write all four of them so you can choose which one you prefere. They're 
right (in my opinion).

The first two alternatives are in the lower octave. The second two are in the higher octave.

[Intro]
(lower octave):

E|-----------------------------------------------|
B|-----------------------------------------------|
G|--8------8-9--------9-8-6-8------8-9-----9-8-6-|   (x2)
D|----9---------11------------9--------9---------|
A|------9----------11-----------11-------11------|
E|-----------------------------------------------|

                        OR

E|--------------------------------------------------------|
B|--------------------------------------------------------|
G|--------------------------------------------------------|
D|--13-------13-14-----14-13-11-13------13-14----14-13-11-|  (x2)
A|-----14----------16--------------14---------14----------|
E|--------14---------16---------------16--------16--------|

[Intro]
(higher octave) :

E|--11------11-12-------12-11-9-11-------11-12------12-11-10-|
B|-----12---------14---------------12----------12------------|
G|--------11---------13---------------13----------13---------|
D|-----------------------------------------------------------| (x2)
A|-----------------------------------------------------------|
E|-----------------------------------------------------------|

                          OR

E|------------------------------------------------------------|
B|--16------16-17-------17-16-14-16-------16-17------17-16-14-|
G|-----16---------18----------------16----------16------------|
D|--------16---------18----------------18----------18---------| (x2)
A|------------------------------------------------------------|
E|------------------------------------------------------------|
Suggest correction
comments
print report bad tab
6 comments total. Showing first comments.
0 reply
whitestripe22 20 Aug 11, 2006 02:17 PM

first one sounds best

0 reply
Matt Hayward 41 Sep 07, 2006 03:35 PM

first 1 definetaly

0 reply
mannis 106 Nov 26, 2006 07:30 AM

numero uno is best

guest
You may want to rate the tab now too:
select rating
Wanna post a correction for this tab? Suggest correction