Oops, an error
Loading. Please wait.

Starlight Tab

version 1
by Muse
567,329 views 612 this week
28 commentsread comments
1 2 3 4 5
excellent!
x 135
add to favorites
launch autoscroll
font size
0
reset
how to read this tab
guitar tuner
Autoscroll
slow
fast
+/-
esc
set tempo
stop
Help us to improve Ultimate-Guitar.com Take our survey!
×
Difficulty
intermediate
[Verse 1]

(piano)

Starts on bar 5 repeats twice
then on bar 28 (twice through)

(Part 1)

e|--11----11-12----12-11--11---11-12----12-11----|
B|----12-------14-------14--12------12--------14-|
G|------11-------13-----------13------13---------|
D|-----------------------------------------------|
A|-----------------------------------------------|
E|-----------------------------------------------|

after second piano part

(Part 2)

e|--7---7---7---7---7---7--7---7----7---7---7----|
B|----7---7---5---5---5--4---4---4/5--5---5------|
G|-----------------------------------------------|
D|-----------------------------------------------|
A|-----------------------------------------------|
E|-----------------------------------------------|


[Pre-Chorus]

e|-------------------------------------------------------------|
B|-------------------------------------------------------------|
G|--6-6--6-6-x--------------8-8--8-8-x-------------------------|
D|--6-6--6-6-x--4-4-4--4-4--8-8--8-8-x--6-6-6--6-6--7-7--7-7-x-|
A|--4-4--4-4-x--4-4-4--4-4--6-6--6-6-x--6-6-6--6-6--7-7--7-7-x-|
E|--------------2-2-2--2-2--------------4-4-4--4-4--5-5--5-5-x-|

e|--------------------------------------------------------|
B|--------------------------------------------------------|
G|--------------------------8-8-8--8-8--------------------|
D|--2-2-2--2-2--7-7--7-7-x--8-8-8--8-8--------------------|
A|--2-2-2--2-2--7-7--7-7-x--6-6-6--6-6--------------------|
E|--0-0-0--0-0--5-5--5-5-x--------------------------------|


[Chorus]

e|--7-------7-------6-----6----7----7------------|
B|----9---9---9---9---9-----8----9----9----------|
G|------8-------8-------8-----8----9----9--------|
D|-----------------------------------------------|
A|-----------------------------------------------|
E|-----------------------------------------------|

(im not sure how accurate this is the delay did'nt help)

e|------7----------------------------------------|
B|----7---7---5---5------------------------------|
G|--11------9---9--------------------------------| x3  
D|-----------------------------------------------|
A|-----------------------------------------------|
E|-----------------------------------------------|

(last time through chorus)

e|--7-------7-------6-----6----7----7----9----9-----|
B|----9---9---9---9---9-----8----9----9---11---11---|
G|------8-------8-------8-----8----9----9---11---11-|
D|--------------------------------------------------|
A|--------------------------------------------------|
E|--------------------------------------------------|

(on the last 2 arpeggios 2nd guitar starts)

e|-----------------------------------------------|
B|-----------------------------------------------|
G|-----------------6-6-6-6-6-6-8-----------------|
D|-----------------------------------------------|
A|--7-7-7-7-7-7-7-7------------------------------|
E|-----------------------------------------------|
                   (bend this note slowly to 8)

[Verse 2]

repeat  playing part 1 once and part two straight after.

(Part 1)

e|--11----11-12----12-11--11---11-12----12-11----|
B|----12-------14-------14--12------12--------14-|
G|------11-------13-----------13------13---------|
D|-----------------------------------------------|
A|-----------------------------------------------|
E|-----------------------------------------------|

(Part 2)

e|--7---7---7---7---7---7--7---7----7---7---7----|
B|----7---7---5---5---5--4---4---4/5--5---5------|
G|-----------------------------------------------|
D|-----------------------------------------------|
A|-----------------------------------------------|
E|-----------------------------------------------|


[Pre-Chorus]

e|--------------------------------------------------------------|
B|--------------------------8-8--8-8-x--------------------------|
G|--6-6--6-6-x--------------8-8--8-8-x--------------------------|
D|--6-6--6-6-x--4-4-4--4-4--8-8--8-8-x--9-6-------7-7--7-7-x----|
A|--4-4--4-4-x--4-4-4--4-4--6-6--6-6-x------6--6--7-7--7-7-x----|
E|--------------2-2-2--2-2------------------------5-5--5-5-x----|


e|--------------------------------------------------------|
B|--------------------------8-8-8--8-8--------------------|
G|--------------------------8-8-8--8-8--------------------|
D|--2-2-2--2-2--7-7--7-7-x--8-8-8--8-8--------------------|
A|--2-2-2--2-2--7-7--7-7-x--6-6-6--6-6--------------------|
E|--0-0-0--0-0--5-5--5-5-x--------------------------------|


[Chorus]

e|-------------------------------------------|
B|--4-4-4-4-8-8-8-8-9-9-9-9------------------|
G|--4-4-4-4-8-8-8-8-9-9-9-9-8-8-8-8----------|   x2
D|--6-6-6-6-8-8-8-8-9-9-9-9-9-9-9-9----------|
A|--6-6-6-6-6-6-6-6-7-7-7-7-9-9-9-9----------|
E|--4-4-4-4-----------------7-7-7-7----------|

e|----------------------------------------------------------------------------|
B|--4-4-4-4-4-4-4-4--8-8-8-8-8-8-8-8--9-9-9-9-9-9-9-9-------------------------|
G|--4-4-4-4-4-4-4-4--8-8-8-8-8-8-8-8--9-9-9-9-9-9-9-9--8-8-8-8-8-8-8-8--------|
D|--6-6-6-6-6-6-6-6--8-8-8-8-8-8-8-8--9-9-9-9-9-9-9-9--9-9-9-9-9-9-9-9--------|
A|--6-6-6-6-6-6-6-6--6-6-6-6-6-6-6-6--7-7-7-7-7-7-7-7--9-9-9-9-9-9-9-9--------|
E|--4-4-4-4-4-4-4-4--6-6-6-6-6-6-6-6--7-7-7-7-7-7-7-7--7-7-7-7-7-7-7-7--------|

e-|-----------------------------------------------------------------------------|
B-|-4-4-4-4-4-4-4-4--8-8-8-8-8-8-8-8--9-9-9-9-9-9-9-9---------------------------|
G-|-4-4-4-4-4-4-4-4--8-8-8-8-8-8-8-8--9-9-9-9-9-9-9-9--11-11-11-11-11-11-11-11--|
D-|-6-6-6-6-6-6-6-6--8-8-8-8-8-8-8-8--9-9-9-9-9-9-9-9--11-11-11-11-11-11-11-11--|
A-|-6-6-6-6-6-6-6-6--6-6-6-6-6-6-6-6--7-7-7-7-7-7-7-7--9--9--9--9--9--9--9--9---|
E-|-4-4-4-4-4-4-4-4--6-6-6-6-6-6-6-6--7-7-7-7-7-7-7-7---------------------------|


[Outro]

Back to part 1 of the verse as the ending.

(Part 1)

e|--11----11-12----12-11--11---11-12----12-11----|
B|----12-------14-------14--12------12--------14-|
G|------11-------13-----------13------13---------|
D|-----------------------------------------------|
A|-----------------------------------------------|
E|-----------------------------------------------|


**************************

| x    Dead note

**************************
Suggest correction
What's this?
You can suggest a correction to this tab. Community and Mods will review your correction and vote to approve or reject it.
comments
print report bad tab
28 comments total. Showing first comments.
+7 reply
Gu1T@r_H3r0 3,247 wrote on July 11 2006, 03:00 pm

Pretty good, the chorus bit is
e|-7-------7-|-6-------6-|-7-------7-|-----------|
B|---9---9---|---8---8---|---9---9---|-7-------7-|
G|-----8-----|-----8-----|-----9-----|---8---8---|
D|-----------|-----------|-----------|-----9-----|
That's not the exact rhythm, but you get it. Good tab.

0 reply
Dark Link 410 wrote on July 29 2006, 10:36 am

Class tabs my amego, nice one 5 star it all the way :D

+5 reply
whitestripe22 66 wrote on August 11 2006, 02:19 pm

intro sounds too high...

guest
You may want to rate the tab now too:
select rating
Please do not post tabs as comments. Select "correction" instead!