Oops, an error
Loading. Please wait.

Starlight Bass Tab

version 2
by Muse
24,218 views 21 this week
3 commentsread comments
1 2 3 4 5
x 12
add to favorites
launch autoscroll
font size
0
reset
guitar tuner
Autoscroll
slow
fast
+/-
esc
set tempo
stop
Help us to improve Ultimate-Guitar.com Take our survey!
×
Author
Difficulty
Track: Starlight
Artist:  Muse
Album:  Black Holes and Revelations
Tabbed by:  PitchImperfect
Date:  04.07.06

Tuning:  Standard

\ = slide down
/ = slide up

Intro
G|-----------------------------------------------------------------|
D|-----------------------------------------------------------------|
A|-----------------------------------------------------------------|
E|-7-7-7-7-7-7-7-7-7-7-7-7-7-7-7-7-7-7-7-7-7-7-7-7-7-7-7-7-7-7-7-7-|


Verse
G|-----------------------------------------------------------------|
D|---------------------------------6-6-6-6-6-6-6-------------------|
A|-------------------------------6---------------7-7-7-7-7-7-6-7-9-|
E|-7-7-7-7-7-7-7-9-9-9-9-9-9-7-9-----------------------------------| x9

G|-----------------------------------------------------------------|
D|---------------------------------6-6-6-6-6-6-6-------------------|
A|-------------------------------6---------------7-7-7-7-7-7-7-7-6-|
E|-7-7-7-7-7-7-7-9-9-9-9-9-9-7-9-----------------------------------|


Bridge
G|-----------------------------------------------------------------|
D|-----------------------------------------------------------------|
A|-4-4-4-4-4-4-4-------------------6-6-6-6-6-6-6-------------------|
E|---------------2---2-2-2-2-2-2-2---------------4---4-4-4-4-4-4-4-|

G|-----------------------------------------------------------------|
D|-----------------------------------------------------------------|
A|-----------------------------------------------6---6-6-6-6-6-6-6-|
E|-5-5-5-5-5-5-5-0---0-0-0-0-0-0-0-5-5-5-5-5-5-5-------------------|


Chorus
G|-----------------------------------------------------------------|
D|-----------------------------------------------------------------|
A|-----------------------------------------------------------------|
E|-4\--------------------------------------------------------------|

G|-----------------------------------------------------------------|
D|-----------------------------------------------------------------|
A|-----------------------------------------------------------------|
E|-----------------------------------------------------------------|

G|-----------------------------------------------------------------|
D|-----------------------------------------------------------------|
A|-----------------6-6-6-6-6-6-6-6-7-7-7-7-7-7-7-7-----------------|
E|-4-4-4-4-4-4-4-4---------------------------------7-7-7-7-7-7-7-7-|
   slowly increase volume as you play this part
G|-----------------------------------------------------------------|
D|-----------------------------------------------------------------|
A|-----------------6-6-6-6-6-6-6-6-7-7-7-7-7-7-7-7-9-9-9-9-9-9-9-9-|
E|-4-4-4-4-4-4-4-4-------------------------------------------------|


Pre-Verse
G|-----------------------------------------------------------------|
D|-----------------------------------------------------------------|
A|-----------------------------------------------------------------|
E|-7-7-7-7-7-7-7-7-7-7-7-7-7-7-7-7-7-7-7-7-7-7-7-7-7-7-7-7-7-7-7-7-|


Verse
G|-----------------------------------------------------------------|
D|---------------------------------6-6-6-6-6-6-6-------------------|
A|-------------------------------6---------------7-7-7-7-7-7-6-7-9-|
E|-7-7-7-7-7-7-7-9-9-9-9-9-9-7-9-----------------------------------| x3

G|-----------------------------------------------------------------|
D|---------------------------------6-6-6-6-6-6-6-------------------|
A|-------------------------------6---------------7-7-7-7-7-7-7-7-6-|
E|-7-7-7-7-7-7-7-9-9-9-9-9-9-7-9-----------------------------------|


Bridge
G|-----------------------------------------------------------------|
D|-----------------------------------------------------------------|
A|-4-4-4-4-4-4-4-------------------6-6-6-6-6-6-6-------------------|
E|---------------2---2-2-2-2-2-2-2---------------4---4-4-4-4-4-4-4-|

G|-----------------------------------------------------------------|
D|-----------------------------------------------------------------|
A|-----------------------------------------------6---6-6-6-6-6-6-6-|
E|-5-5-5-5-5-5-5-0---0-0-0-0-0-0-0-5-5-5-5-5-5-5-------------------|


Chorus
G|-----------------------------------------------------------------|
D|-----------------------------------------------------------------|
A|-----------------6-6-6-6-6-6-6-6-7-7-7-7-7-7-7-7-----------------|
E|-4-4-4-4-4-4-4-4---------------------------------7-7-7-7-7-7-7-7-|
   
G|-----------------------------------------------------------------|
D|--------------------------------------------------------/9-9-9-9-|
A|-----------------6-6-6-6-6-6-6-6-7-7-7-7-7-7-7-7-----------------|
E|-4-4-4-4-4-4-4-4---------------------------------7-7-7-7---------|

G|-----------------------------------------------------------------|
D|-----------------------------------------------------------------|
A|-----------------6-6-6-6-6-6-6-6-7-7-7-7-7-7-7-7-----------------|
E|-4-4-4-4-4-4-4-4---------------------------------7-7-7-7-7-7-7-7-|

G|-----------------------------------------------------------------|
D|-----------------------------------------------------------------|
A|-----------------6-6-6-6-6-6-6-6-7-7-7-7-7-7-7-7-9-9-9-9-9-9-9-9-|
E|-4-4-4-4-4-4-4-4-------------------------------------------------|


Outro
G|-----------------------------------------------------------------|
D|---------------------------------6-6-6-6-6-6-6-------------------|
A|-------------------------------6---------------7-7-7-7-7-7-6-7-9-|
E|-7-7-7-7-7-7-7-9-9-9-9-9-9-7-9-----------------------------------| x2

G|-----|
D|-----|
A|-----|
E|-7\--|
Suggest correction
comments
print report bad tab
3 comments total.
0 reply
oxocubeingravy 342 Oct 11, 2006 03:42 PM

sweet tab mate :]

0 reply
lyndon_93 10 Jan 23, 2008 12:49 PM

this is definately wrong
sorry

0 reply
Janky_Hoopty 490 Feb 06, 2011 06:06 PM

This is definitely right, actually. It's the only version with the correct verse. All the other tabs show an F# leading to the high A flat, but yours has the E flat, which is how it's supposed to be.

guest
You may want to rate the tab now too:
select rating
Wanna post a correction for this tab? Suggest correction