Oops, an error
Loading. Please wait.

Starlight Bass Tab

version 3
by Muse
15,311 views 3 this week
no commentswrite comment
1 2 3 4 5
excellent!
x 6
add to favorites
launch autoscroll
font size
0
reset
guitar tuner
Tab Pro tools
  • play this tab
  • loop segment
  • change instrument
  • show fretboard
  • metronome
×
Best way to learn
"Starlight"
Autoscroll
slow
fast
+/-
esc
set tempo
stop
Contributor
Difficulty
novice
Song: Starlight
Artist: Muse
Album: Black Holes & Revelations

Tabbed By: Marcos Prieto (marcrow_ps@yahoo.es)


Notation legend:

   \   -> slide up.
   /   -> slide down.
   r   -> rest.
   ^ = notes higher than 9 (10, 11, 12...). 12 is 12, 
       not 1 and 2.                         ^ 
   + + -> The rhythm of the song, generally 4x4. 
          If there are 2 digits notes or there's no 
          enough space, I lengthen it, 
          from (+   +   ...) to (+   ·   +   ·  ...) 
   |·------·| -> repeat this a number of times, 
                 for example |·3-3-3-3·| x4
                 repeats 3-3-3-3 four times.


Intro:

  B                
  +   +   +   +    +   +   +   +    +   +   +   +    +   +   +   +    
G|----------------|----------------|----------------|----------------|
D|----------------|----------------|----------------|----------------|
A|2-2-2-2-2-2-2-2-|2-2-2-2-2-2-2-2-|2-2-2-2-2-2-2-2-|2-2-2-2-2-2-2-2-|
E|----------------|----------------|----------------|----------------|

Verse x10 (replace last time V. End 1 with V. End 2):

                                                      ____V. End 1___
   B                C#m              G#m              E              \
   +   +   +   +    +   +   +   +    +   +   +   +    +   +   +   +    
G||----------------|----------------|----------------|----------------||
D|·----------------|--------------4-|6-6-6-6-6-6-6-2-|--2-2-2-2-1-2-4-·|
A|·2-2-2-2-2-2-2-4-|--4-4-4-4-2-4---|----------------|----------------·|
E||----------------|----------------|----------------|----------------||

  ____V. End 2___
  E              \
  +   +   +   +    
G|----------------|
D|--2-2-2-2-2-2-2-|
A|----------------|
E|----------------|

Pre-Chorus:

  C#m              F#m              D#               G#m
  +   +   +   +    +   +   +   +    +   +   +   +    +   +   +   +    
G|----------------|----------------|----------------|----------------|
D|----------------|----------------|1-1-1-1-1-1-1---|----------------|
A|4-4-4-4-4-4-4---|----------------|----------------|----------------|
E|--------------2-|--2-2-2-2-2-2-2-|--------------4-|--4-4-4-4-4-4-4-|

  A                E                A                D#
  +   +   +   +    +   +   +   +    +   +   +   +    +   +   +   +    
G|----------------|----------------|----------------|----------------|
D|----------------|----------------|----------------|----------------|
A|----------------|----------------|--------------6-|--6-6-6-6-6-6-6-|
E|5-5-5-5-5-5-5-0-|--0-0-0-0-0-0-0-|5-5-5-5-5-5-5---|----------------|

Pre-chorus add:

  G#m (5º)
  +   +   +   +   
G|----------------|
D|----------------|
A|----------------|
E|11--\\\\\-------|
  ^

Chorus 1:

 (1.58):

  G#m              D#               E                Bm
  +   +   +   +    +   +   +   +    +   +   +   +    +   +   +   +    
G|----------------|----------------|----------------|----------------|
D|----------------|1-1-1-1-1-1-1-1-|2-2-2-2-2-2-2-2-|----------------|
A|----------------|----------------|----------------|2-2-2-2-2-2-2-2-|
E|4-4-4-4-4-4-4-4-|----------------|----------------|----------------|

  G#m              D#               E                F#m
  +   +   +   +    +   +   +   +    +   +   +   +    +   +   +   +    
G|----------------|----------------|----------------|----------------|
D|----------------|1-1-1-1-1-1-1-1-|2-2-2-2-2-2-2-2-|4-4-4-4-4-4-4-4-|
A|----------------|----------------|----------------|----------------|
E|4-4-4-4-4-4-4-4-|----------------|----------------|----------------|

Intro.

Verse x4 (replace last time V. End 1 with V. End 2).

Pre-Chorus.

Chorus 2:

  G#m              D#               E                Bm
  +   +   +   +    +   +   +   +    +   +   +   +    +   +   +   +    
G|----------------|----------------|----------------|----------------|
D|----------------|1-1-1-1-1-1-1-1-|2-2-2-2-2-2-2-2-|----------------|
A|----------------|----------------|----------------|2-2-2-2-2-2-2-2-|
E|4-4-4-4-4-4-4-4-|----------------|----------------|----------------|

  G#m              D#               E                Bm
  +   +   +   +    +   +   +   +    +   +   +   +    +   +   +   +    
G|----------------|----------------|----------------|----------------|
D|----------------|1-1-1-1-1-1-1-1-|2-2-2-2-2-2-2-2-|----------------|
A|----------------|----------------|----------------|2~-----/14~-----|
E|4-4-4-4-4-4-4-4-|----------------|----------------|--------^-------|

  G#m              D#               E                Bm
  +   +   +   +    +   +   +   +    +   +   +   +    +   +   +   +    
G|----------------|----------------|----------------|----------------|
D|6-6-6-6-6-6-6-6-|----------------|----------------|----------------|
A|----------------|6-6-6-6-6-6-6-6-|7-7-7-7-7-7-7-7-|----------------|
E|----------------|----------------|----------------|7-7-7-7-7-7-7-7-|

  G#m              D#               E                F#m
  +   +   +   +    +   +   +   +    +   +   +   +    +   +   +   +    
G|----------------|----------------|----------------|----------------|
D|6-6-6-6-6-6-6-6-|----------------|----------------|----------------|
A|----------------|6-6-6-6-6-6-6-6-|7-7-7-7-7-7-7-7-|7-9-9-9-9-9-9-9-|
E|----------------|----------------|----------------|----------------|

Verse (x2), end with:

  Bm
  +   +   +   +
G|----------------|
D|----------------|
A|----------------|
E|7---\\\\\-------|


     __   _      __      __      _____   _____   _____
    /  | / |    /  |    /  `\   / ___/  / __ /  (  __/
   /   |/  |   / /||   / /) /  //      / / //   \ \
  / /|   /||  / /^||  / /||   //___   / / //  ___) )
 / / |  / || / /  || / / ||  /    /  /  ^^/  /    / 
 ^^^^^^^^^^^^^^^^^^^^^^^^^^^^^^^^^^^^^^^^^^^^^^^^^
comments
print report bad tab
I want to post or [tab]
guest
You may want to rate the tab now too:
select rating
Please do not post tabs as comments. Select "correction" instead!