Oops, an error
Loading. Please wait.

Starlight Tab

version 5
by Muse
19,170 views 66 this week
1 commentread comment
1 2 3 4 5
excellent!
x 4
add to favorites
launch autoscroll
font size
0
reset
how to read this tab
guitar tuner
Tab Pro tools
  • play this tab
  • loop segment
  • change instrument
  • show fretboard
  • metronome
Autoscroll
slow
fast
+/-
esc
set tempo
stop
Contributor
|---------------------------------------------------------------|
|Muse - Starlight I took this tab mainly from the BHAR tab book |
|---------------------------------------------------------------|

Piano arr Guitar
e|11--------------11--12-|-12---------------12--11------|
B|-----12----------------|-----14-------------------14--|
G|----------11-----------|----------13~13---------------|
D|-----------------------|------------------------------|
A|-----------------------|------------------------------|
E|-----------------------|------------------------------|

e|11--------------11--12-|-12---------------12--11------|
B|-----12----------------|-----12-------------------14--|
G|----------13-----------|----------13~13---------------|
D|-----------------------|------------------------------|
A|-----------------------|------------------------------|
E|-----------------------|------------------------------|


e|-----7-------------7----|-----7---------7----7-------7--|
B|7---------7---7-------5-|-5--------5--------------5-----|
G|------------------------|-------------------------------|
D|------------------------|-------------------------------|
A|------------------------|-------------------------------|
E|------------------------|-------------------------------|

e|------7-----------7-----|-7-----------7--7-----------7--|
B|4--4-----4--4--4-----4>-|-----4>--------------4>--------|
G|------------------------|-------------------------------|
D|------------------------|-------------------------------|
A|------------------------|-------------------------------|
E|------------------------|-------------------------------|

e|------7-----------7-----|-7-----------7--7-----------7--|
B|4--4-----4--4--4-----4>-|-----4>--------------4>--------|
G|------------------------|-------------------------------|
D|------------------------|-------------------------------|
A|------------------------|-------------------------------|
E|------------------------|-------------------------------|

e|-------------------------|------------------------|
B|-------------------------|------------------------|
G|-------------------------|------------------------|
D|11---11---11--11--11---4-|-4-----4----4--4--4--4--|
A|11---11---11--11--11---4-|-4-----4----4--4--4--4--|
E|-9----9----9---9---9---2-|-2-----2----2--2--2--2--|

e|------------------------|-------------------------|
B|------------------------|-------------------------|
G|8---8---8---8-----------|-------------------------|
D|8---8---8---8--------6~-|-6--6--6--6--6--6--6-----|
A|6---6---6---6--------6~-|-6--6--6--6--6--6--6-----|
E|---------------------4~-|-4--4--4--4--4--4--4-----|

e|---------------------------------------------------------|
B|---------------------------------------------------------|
G|----------------------9-|-9---9---9-------9---9---9------|
D|7----7----7---7---7---9-|-9---9---9-------9---9---9------|
A|7----7----7---7---7---7-|-7---7---7-------7---7---7------|
E|5----5----5---5---5---0-|-0---0---0---0---0---0---0---0--|

e|---------------------------------------------------------|
B|---------------------------------------------------------|
G|----------------------8-|-8---8---8---8---8---8---8---8--|
D|7----7----7---7---7---8-|-8---8---8---8---8---8---8---8--|
A|7----7----7---7---7---6-|-6---6---6---6---6---6---6---6--|
E|5----5----5---5---5-----|--------------------------------|

Delay
e|7---------7-------|-6--------6-------|-7--------7-------|----7-------------|
B|---9---------9----|----9--------9----|----9--------9----|-7-----7-----7----|
G|------8---------8-|-------8--------8-|-------9--------9-|----------9----9--|
D|------------------|------------------|------------------|------------------|
A|------------------|------------------|------------------|------------------|
E|------------------|------------------|------------------|------------------|

e|7---------7-------|-6--------6-------|-7--------7-------|----7-----------|
B|---9---------9----|----9--------8----|----9--------9----|-7-----7-----7--|
G|------8---------8-|-------8--------8-|-------9--------9-|----------9---9-|
D|------------------|------------------|------------------|----------------|
A|------------------|------------------|------------------|----------------|
E|------------------|------------------|------------------|----------------|

e|7-----------7-------|--9-----9-----9-----9---9--|
B|---9-----------9----|-----7-----------7---------|
G|------9-----------9-|---------------------------|
D|--------------------|---------------------------|
A|--------------------|---------------------------|
E|--------------------|---------------------------|

e|-----------------------|------------------------|------------------------|
B|---0--0-----0--0-------|----0--0-----0-----0--0-|-------0--0-----0-------|
G|4--------4--------4--3-|-3--------3-----3-------|-1--1--------1-----1----|
D|-----------------------|------------------------|----------------------2-|
A|-----------------------|------------------------|------------------------|
E|-----------------------|------------------------|------------------------|

e|-----------------------|-----------------------|-------------------------|
B|------0--------0-----0-|---0--0-----0--0-------|----0--0--------0-----0--|
G|---1--------1-----3----|4--------4--------4--3-|-3--------3--3-----3-----|
D|2--------2-------------|-----------------------|-------------------------|
A|-----------------------|-----------------------|-------------------------|
E|-----------------------|-----------------------|-------------------------|

e|-----------------------|-------------------------|
B|---0-----0-----0-------|-------0--------0-----0--|
G|1-----1-----1-----1----|----1--------1-----4-----|
D|---------------------2-|-2--------2--------------|
A|-----------------------|-------------------------|
E|-----------------------|-------------------------|

e|---------------------------|-------------------------|
B|---------------------------|-------------------------|
G|---------------------------|-------------------------|
D|11--11--11--11--11--11--11-|-4--4--4--4--4--4--4--4--|
A|11--11--11--11--11--11--11-|-4--4--4--4--4--4--4--4--|
E|-9---9---9---9---9---9---9-|-2--4--2--2--2--2--2--2--|

e|-----------------|------------------------------|
B|-----------------|------------------------------|
G|8--8--8--8--8--8-|-4>----4----------------------|
D|8--8--8--8--8--8-|-----------6------------------|
A|6--6--6--6--6--6-|---------------6---6---6---6--|
E|-----------------|------------------------------|

e|---------------------------------------------------------|
B|---------------------------------------------------------|
G|----------------------9-|-9---9---9-------9---9---9------|
D|7----7----7---7---7---9-|-9---9---9-------9---9---9------|
A|7----7----7---7---7---7-|-7---7---7-------7---7---7------|
E|5----5----5---5---5---0-|-0---0---0---0---0---0---0---0--|

e|---------------------------------------------------------|
B|---------------------------------------------------------|
G|----------------------8-|-8---8---8---8---8---8---8---8--|
D|7----7----7---7---7---8-|-8---8---8---8---8---8---8---8--|
A|7----7----7---7---7---6-|-6---6---6---6---6---6---6---6--|
E|5----5----5---5---5-----|--------------------------------|

e|-----------------------|------------------------|------------------------|
B|-----------------------|------------------------|------------------------|
G|-----------------------|-8--8--8--8--8--8--8--8-|-9--9--9--9--9--9--9--9-|
D|6--6--6--6--6--6--6--6-|-8--8--8--8--8--8--8--8-|-9--9--9--9--9--9--9--9-|
A|6--6--6--6--6--6--6--6-|-6--6--6--6--6--6--6--6-|-7--7--7--7--7--7--7--7-|
E|4--4--4--4--4--4--4--4-|------------------------|------------------------|

e|-----------------------|------------------------|------------------------|
B|-----------------------|------------------------|------------------------|
G|-----------------------|------------------------|-8--8--8--8--8--8--8--8-|
D|9--9--9--9--9--9--9--9-|-6--6--6--6--6--6--6--6-|-8--8--8--8--8--8--8--8-|
A|9--9--9--9--9--9--9--9-|-6--6--6--6--6--6--6--6-|-6--6--6--6--6--6--6--6-|
E|7--7--7--7--7--7--7--7-|-4--4--4--4--4--4--4--4-|------------------------|

e|-----------------------|-------------------------|
B|-----------------------|-------------------------|
G|9--9--9--9--9--9--9--9-|-9--9--9--9--9--9--9--9--|
D|9--9--9--9--9--9--9--9-|-9--9--9--9--9--9--9--9--|
A|7--7--7--7--7--7--7--7-|-7--7--7--7--7--7--7--7--|
E|-----------------------|-------------------------|

e|---------------------------|
B|---------------------------|
G|11--11--11--11--11--11--11-|
D|11--11--11--11--11--11--11-|
A|-9---9---9---9---9---9---9-|
E|---------------------------|


Live Matt Plays this over the piano and Bass at the end

e|-----------------------|------------------------|------------------------|
B|---0--0-----0--0-------|----0--0-----0-----0--0-|-------0--0-----0-------|
G|4--------4--------4--3-|-3--------3-----3-------|-1--1--------1-----1----|
D|-----------------------|------------------------|----------------------2-|
A|-----------------------|------------------------|------------------------|
E|-----------------------|------------------------|------------------------|

e|-----------------------|-----------------------|-------------------------|
B|------0--------0-----0-|---0--0-----0--0-------|----0--0--------0-----0--|
G|---1--------1-----3----|4--------4--------4--3-|-3--------3--3-----3-----|
D|2--------2-------------|-----------------------|-------------------------|
A|-----------------------|-----------------------|-------------------------|
E|-----------------------|-----------------------|-------------------------|

e|-----------------------|-------------------------|
B|---0-----0-----0-------|-------0--------0-----0--|
G|1-----1-----1-----1----|----1--------1-----4-----|
D|---------------------2-|-2--------2--------------|
A|-----------------------|-------------------------|
E|-----------------------|-------------------------|


So there you go starlight by Muse hope you dont find it too hard to learn its ot that 
of a song to learn the clean part can be a bit tricky at first but happy learning :-)!
comments
print report bad tab
1 comment total.
-1 reply
wembly wrote on March 30 2010, 04:43 am

nice man but dont rip from the tab book, it means your cheating people who bought it like me out of money

I want to post or [tab]
guest
You may want to rate the tab now too:
select rating
Please do not post tabs as comments. Select "correction" instead!