Oops, an error
Loading. Please wait.

Starlight Bass Tab

version 6
by Muse
1,607 views 3 this week
no commentswrite comment
1 2 3 4 5
excellent!
x 1
add to favorites
launch autoscroll
font size
0
reset
guitar tuner
Tab Pro tools
  • play this tab
  • loop segment
  • change instrument
  • show fretboard
  • metronome
Autoscroll
slow
fast
+/-
esc
set tempo
stop
Contributor
-------------------------------------------------------------------------------
                             Muse - Starlight
-------------------------------------------------------------------------------
Tabbed by: Kable95

Tuning: Standard
Effects: Harmoniser -1

Intro: 
|-----------------|-----------------|-----------------|-----------------|
|-9-9-9-9-9-9-9-9-|-9-9-9-9-9-9-9-9-|-9-9-9-9-9-9-9-9-|-9-9-9-9-9-9-9-9-|
|-----------------|-----------------|-----------------|-----------------|
|-----------------|-----------------|-----------------|-----------------|

Verse: 10x
|------------------|------------------------|-13-13-13-13-13-13-13-13----|-------------------------|
|-9-9-9-9-9-9-9-11-|-11-11-11-11-11-9-11-13-|-------------------------14-|-14-14-14-14-14-13-14-16-|
|------------------|------------------------|----------------------------|-------------------------|
|------------------|------------------------|----------------------------|-------------------------|

Chorus:
|-------------------------|-----------------|-8-8-8-8-8-8-8-8-|-----------------|
|-11-11-11-11-11-11-11-11-|-4-4-4-4-4-4-4-4-|-----------------|-6-6-6-6-6-6-6-6-|
|-------------------------|-----------------|-----------------|-----------------|
|-------------------------|-----------------|-----------------|-----------------|

|-----------------|-9-9-9-9-9-9-9-9-|-----------------|-8-8-8-8-8-8-8-8-|
|-7-7-7-7-7-7-7-7-|-----------------|-7-7-7-7-7-7-7-7-|-----------------|
|-----------------|-----------------|-----------------|-----------------|
|-----------------|-----------------|-----------------|-----------------|

|-----------------|-----------------|-----------------|-----------------|
|-6\--------------|-----------------|-----------------|-----------------|
|-----------------|-----------------|-----------------|-----------------|
|-----------------|-----------------|-----------------|-----------------|

|-----------------|-----------------|-----------------|-----------------|
|-----------------|-----------------|-----------------|-----------------|
|-----------------|-----------------|-----------------|-----------------|
|-----------------|-----------------|-----------------|-----------------|

|-----------------|-8-8-8-8-8-8-8-8-|-9-9-9-9-9-9-9-9-|-----------------|
|-6-6-6-6-6-6-6-6-|-----------------|-----------------|-9-9-9-9-9-9-9-9-|
|-----------------|-----------------|-----------------|-----------------|
|-----------------|-----------------|-----------------|-----------------|

|-----------------|-8-8-8-8-8-8-8-8-|-9-9-9-9-9-9-9-9-|-11-11-11-11-11-11-11-11-|
|-6-6-6-6-6-6-6-6-|-----------------|-----------------|-------------------------|
|-----------------|-----------------|-----------------|-------------------------|
|-----------------|-----------------|-----------------|-------------------------|

Interlude: 
|-----------------|-----------------|-----------------|-----------------|
|-9-9-9-9-9-9-9-9-|-9-9-9-9-9-9-9-9-|-9-9-9-9-9-9-9-9-|-9-9-9-9-9-9-9-9-|
|-----------------|-----------------|-----------------|-----------------|
|-----------------|-----------------|-----------------|-----------------|

Verse: 4x
|------------------|------------------------|-13-13-13-13-13-13-13-13----|-------------------------|
|-9-9-9-9-9-9-9-11-|-11-11-11-11-11-9-11-13-|-------------------------14-|-14-14-14-14-14-13-14-16-|
|------------------|------------------------|----------------------------|-------------------------|
|------------------|------------------------|----------------------------|-------------------------|

Chorus:
|-------------------------|-----------------|-8-8-8-8-8-8-8-8-|-----------------|
|-11-11-11-11-11-11-11-11-|-4-4-4-4-4-4-4-4-|-----------------|-6-6-6-6-6-6-6-6-|
|-------------------------|-----------------|-----------------|-----------------|
|-------------------------|-----------------|-----------------|-----------------|

|-----------------|-9-9-9-9-9-9-9-9-|-----------------|-8-8-8-8-8-8-8-8-|
|-7-7-7-7-7-7-7-7-|-----------------|-7-7-7-7-7-7-7-7-|-----------------|
|-----------------|-----------------|-----------------|-----------------|
|-----------------|-----------------|-----------------|-----------------|

|-----------------|-8-8-8-8-8-8-8-8-|-9-9-9-9-9-9-9-9-|-----------------|
|-6-6-6-6-6-6-6-6-|-----------------|-----------------|-9-9-9-9-9-9-9-9-|
|-----------------|-----------------|-----------------|-----------------|
|-----------------|-----------------|-----------------|-----------------|

|-----------------|-8-8-8-8-8-8-8-8-|-9-9-9-9-9-9-9-9-|-----------------|
|-6-6-6-6-6-6-6-6-|-----------------|-----------------|-9-9-9-9-9-9-9-9-|
|-----------------|-----------------|-----------------|-----------------|
|-----------------|-----------------|-----------------|-----------------|

|-----------------|-8-8-8-8-8-8-8-8-|-9-9-9-9-9-9-9-9-|-----------------|
|-6-6-6-6-6-6-6-6-|-----------------|-----------------|-9-9-9-9-9-9-9-9-|
|-----------------|-----------------|-----------------|-----------------|
|-----------------|-----------------|-----------------|-----------------|

|-----------------|-8-8-8-8-8-8-8-8-|-9-9-9-9-9-9-9-9-|-11-11-11-11-11-11-11-11-|
|-6-6-6-6-6-6-6-6-|-----------------|-----------------|-------------------------|
|-----------------|-----------------|-----------------|-------------------------|
|-----------------|-----------------|-----------------|-------------------------|

Outro:
|------------------|------------------------|-13-13-13-13-13-13-13-13----||
|-9-9-9-9-9-9-9-11-|-11-11-11-11-11-9-11-13-|-------------------------14-||----|
|------------------|------------------------|----------------------------||    |
|------------------|------------------------|----------------------------||    |
                                                                               |
-------------------------|                                                     |
-14-14-14-14-14-13-14-16-| ----------------------------------------------------|2x
-------------------------|
-------------------------|

|------------------|
|-9\---------------|
|------------------|
|------------------|





| /  slide up
| \  slide down
| h  hammer-on
| p  pull-off
| ~  vibrato
| +  harmonic
| x  Mute note
===============================================================================
comments
We did not receive enough feedback on this tab! Please rate:
print report bad tab
1 2 3 4 5
I want to post or [tab]
guest
You may want to rate the tab now too:
select rating
Please do not post tabs as comments. Select "correction" instead!