Oops, an error
Loading. Please wait.

Starlight Tab

version 6
by Muse
7,163 views 66 this week
no commentswrite comment
1 2 3 4 5
1 last vote to show rating
add to favorites
launch autoscroll
font size
0
reset
how to read this tab
guitar tuner
Autoscroll
slow
fast
+/-
esc
set tempo
stop
Help us to improve Ultimate-Guitar.com Take our survey!
×
Difficulty
novice
[Intro]
(Piano arranged for Guitar)
e|--------------------------------------------------------------------------------------|
B|-4-----4-5------5-4-2-4-----4-5------5-4-2-4-----4-5------5-4-2-4-----4-5-----5-4-2---|
G|---4--------6-------------4--------4--------------4--------6-------------4-------4----|
D|-----4--------6-------------6--------6--------------4--------6-------------6-------6--|
A|--------------------------------------------------------------------------------------|
E|--------------------------------------------------------------------------------------|

[Verse]
(Distorted Bass)
e|-------------------------------------------------------------------------------------|
B|-------------------------------------------------------------------------------------|
G|-------------------------------------------------------------------------------------|
D|-------------------------------------------------------------------------------------|
A|--------------------------------------------11-11-11-11-11-11-11-11-7-7-7-7-7-6-7-9--|
E|-7-7-7-7-7-7-7-7-9-9-9-9-9-7-9-11----------------------------------------------------|

(Piano Arranged for Guitar)
e|--------------------------------------------------------------------------------------|
B|-4-----4-5------5-4-2-4-----4-5------5-4-2-4-----4-5------5-4-2-4-----4-5-----5-4-2---|
G|---4--------6-------------4--------4--------------4--------6-------------4-------4----|
D|-----4--------6-------------6--------6--------------4--------6-------------6-------6--|
A|--------------------------------------------------------------------------------------|
E|--------------------------------------------------------------------------------------|
Hold you in my arms.....

(Guitar)
e|----7------7------7-----7------7-----7------7------7-----------|
B|-7---7-7----7-5---5-5---5-4---4-4---4-5---5-5---5--------------|
G|---------------------------------------------------------------|
D|---------------------------------------------------------------| x2
A|---------------------------------------------------------------|
E|---------------------------------------------------------------|

[Chorus]
(Dist. Guitar)
C#5 F#5 Eb5 G#5 A5 E7 A5 Eb5

[Bridge]
e|-7-----7-----6-----6-----7-----7----------7----------------------|
B|---9-----9-----8-----8-----9-----9------9---9----7-7-------------|
G|-----8-----8-----8-----8-----9-----9--9-------8-------8----------|
D|-----------------------------------------------------------------| x4
A|-----------------------------------------------------------------|
E|-----------------------------------------------------------------|
Our hopes and expectations.....

[Verse]
(Dist Bass)
e|--------------------------------------------------------------------------------------|
B|--------------------------------------------------------------------------------------|
G|--------------------------------------------------------------------------------------|
D|--------------------------------------------------------------------------------------|
A|--------------------------------------------------------------------------------------|
E|-7-7-7-7-7-7-7-7-7-7-7-7-7-7-7-7-7-7-7-7-7-7-7-7-7-7-7-7-7-7-7-7----------------------|

(Piano Arranged for Guitar)
e|--------------------------------------------------------------------------------------|
B|-4-----4-5------5-4-2-4-----4-5------5-4-2-4-----4-5------5-4-2-4-----4-5-----5-4-2---|
G|---4--------6-------------4--------4--------------4--------6-------------4-------4----|
D|-----4--------6-------------6--------6--------------4--------6-------------6-------6--|
A|--------------------------------------------------------------------------------------|
E|--------------------------------------------------------------------------------------|
Hold you in my arms.....

(Guitar)
e|-----------------------------------------------------------------|
B|----0-----0------0------0------0-------0-----0------0------------|
G|-4---4-4---4-3---3-3----3-1---1--1---1---------------------------|
D|----------------------------------------------2---2-2----2-------| x2
A|-----------------------------------------------------------------|
E|-----------------------------------------------------------------|
Starlight....

[Chorus]
(Dist. Guitar)
C#5 F#5 Eb5 G#5 A5 E7 A5 Eb5

[Fill]
e|--------------|
B|--------------|
G|--------------|
D|-9--6---------|
A|--------6-----|
E|--------------|

G#5

[Outro]
G#5 Eb5 E5 B5
Our hopes and expectations
G#5 Eb5 E5 * * Picking while sliding
Black Holes and Revelations E|-19\\\---|
G#5 Eb5 E5 B5
Our hopes and expectations
G#5 Eb5 E5 F#5
Black Holes and Revelations

(Piano arranged for Guitar)
e|--------------------------------------------------------------------------------------|
B|-4-----4-5------5-4-2-4-----4-5------5-4-2-4-----4-5------5-4-2-4-----4-5-----5-4-2---|
G|---4--------6-------------4--------4--------------4--------6-------------4-------4----|
D|-----4--------6-------------6--------6--------------4--------6-------------6-------6--|
A|--------------------------------------------------------------------------------------|
E|--------------------------------------------------------------------------------------|
Hold you in my arms.....


************************************

| \  Slide down

************************************
Suggest correction
Give kudos to tab author, rate the tab!
1 2 3 4 5
comments
print report bad tab
guest
You may want to rate the tab now too:
select rating
Wanna post a correction for this tab? Suggest correction