Oops, an error
Loading. Please wait.

Starlight Bass Tab

version 7
by Muse
564 views 1 this week
no commentswrite comment
1 2 3 4 5
please rate
add to favorites
launch autoscroll
font size
0
reset
guitar tuner
Tab Pro tools
  • play this tab
  • loop segment
  • change instrument
  • show fretboard
  • metronome
×
Best way to learn
"Starlight"
Autoscroll
slow
fast
+/-
esc
set tempo
stop
Contributor
Basist:Christopher Wolstenholme

|-----------------|
|-9-9-9-9-9-9-9-9-| x4
|-----------------| 
|-----------------|

|------------------|------------------------|-13-13-13-13-13-13-13-13----|-------------------------|
|-9-9-9-9-9-9-9-11-|-11-11-11-11-11-9-11-13-|-------------------------14-|-14-14-14-14-14-13-14-16-|
|------------------|------------------------|----------------------------|-------------------------|
|------------------|------------------------|----------------------------|-------------------------|
 x10

Chorus:
|---------------|---------------|---------------|---------------|
|---------------|---------------|---------------|---------------|
|-4-4-4-4-4-4-4-|---------------|-6-6-6-6-6-6-6-|---------------|
|--------------2|-2-2-2-2-2-2-2-|--------------4|-4-4-4-4-4-4-4-|

|---------------|---------------|---------------|---------------|
|---------------|---------------|--------------1|-1-1-1-1-1-1-1-|
|-0-0-0-0-0-0-0-|---------------|-0-0-0-0-0-0-0-|---------------|
|--------------0|-0-0-0-0-0-0-0-|---------------|---------------|

|---------------|
|---------------|
|---------------|
|-4\------------|

|---------------|---------------|---------------|---------------|
|---------------|-1-1-1-1-1-1-1-|-2-2-2-2-2-2-2-|---------------|
|---------------|---------------|---------------|-2-2-2-2-2-2-2-|
|-4-4-4-4-4-4-4-|---------------|---------------|---------------|

|---------------|---------------|---------------|---------------|
|---------------|-1-1-1-1-1-1-1-|-2-2-2-2-2-2-2-|-4-4-4-4-4-4-4-|
|---------------|---------------|---------------|---------------|
|-4-4-4-4-4-4-4-|---------------|---------------|---------------|

================

|-----------------|
|-9-9-9-9-9-9-9-9-| x4
|-----------------| 
|-----------------|

|------------------|------------------------|-13-13-13-13-13-13-13-13----|-------------------------|
|-9-9-9-9-9-9-9-11-|-11-11-11-11-11-9-11-13-|-------------------------14-|-14-14-14-14-14-13-14-16-|
|------------------|------------------------|----------------------------|-------------------------|
|------------------|------------------------|----------------------------|-------------------------|
 x4

Chorus:
|---------------|---------------|---------------|---------------|
|---------------|---------------|---------------|---------------|
|-4-4-4-4-4-4-4-|---------------|-6-6-6-6-6-6-6-|---------------|
|--------------2|-2-2-2-2-2-2-2-|--------------4|-4-4-4-4-4-4-4-|

|---------------|---------------|---------------|---------------|
|---------------|---------------|--------------1|-1-1-1-1-1-1-1-|
|-0-0-0-0-0-0-0-|---------------|-0-0-0-0-0-0-0-|---------------|
|--------------0|-0-0-0-0-0-0-0-|---------------|---------------|

|---------------|---------------|---------------|---------------|
|---------------|-1-1-1-1-1-1-1-|-2-2-2-2-2-2-2-|---------------|
|---------------|---------------|---------------|-2-2-2-2-2-2-2-|
|-4-4-4-4-4-4-4-|---------------|---------------|---------------|

|---------------|---------------|---------------|---------------|
|---------------|-1-1-1-1-1-1-1-|-2-2-2-2-2-2-2-|------/-4-4-4-4|
|---------------|---------------|---------------|-2-2-2---------|
|-4-4-4-4-4-4-4-|---------------|---------------|---------------|

|---------------|---------------|---------------|---------------|
|---------------|-1-1-1-1-1-1-1-|-2-2-2-2-2-2-2-|---------------|
|---------------|---------------|---------------|-2-2-2-2-2-2-2-|
|-4-4-4-4-4-4-4-|---------------|---------------|---------------|

|---------------|---------------|---------------|---------------|
|---------------|-1-1-1-1-1-1-1-|-2-2-2-2-2-2-2-|-4-4-4-4-4-4-4-|
|---------------|---------------|---------------|---------------|
|-4-4-4-4-4-4-4-|---------------|---------------|---------------|

===========

|------------------|------------------------|-13-13-13-13-13-13-13-13----|-------------------------|
|-9-9-9-9-9-9-9-11-|-11-11-11-11-11-9-11-13-|-------------------------14-|-14-14-14-14-14-13-14-16-|
|------------------|------------------------|----------------------------|-------------------------|
|------------------|------------------------|----------------------------|-------------------------|
 x2

|---------------|
|---------------|
|---------------|
|-7\------------|
comments
We did not receive enough feedback on this tab! Please rate:
print report bad tab
1 2 3 4 5
I want to post or [tab]
guest
You may want to rate the tab now too:
select rating
Please do not post tabs as comments. Select "correction" instead!