Oops, an error
Loading. Please wait.

Starlight Tab

version 7
by Muse
4,438 views 21 this week
no commentswrite comment
1 2 3 4 5
excellent!
x 7
add to favorites
launch autoscroll
font size
0
reset
how to read this tab
guitar tuner
Tab Pro tools
  • play this tab
  • loop segment
  • change instrument
  • show fretboard
  • metronome
Autoscroll
slow
fast
+/-
esc
set tempo
stop
Contributor
Difficulty
novice
Song: Starlight
Band: Muse
Album: Black Holes and Revelations


I got the guitar by the guitar track of Starlight. The guitar starts playing at 
1:11, but I'll also put the intro of other instruments.


Bass Intro.

    B                     B                 C#m                    

    E E E E E E E E       E E E E E E E E   E E E E E E E E                          
e|-------------------|--|-----------------|-------------------|
B|-------------------|--|-----------------|-------------------|
G|-------------------|--|-----------------|-------------------|
D|-------------------|--|-----------------|-------------------|
A|-------------------|--|-----------------|-------------------|
E|--7-7-7-7-7-7-7-7--|x4|-7-7-7-7-7-7-7-9-|-9-9-9-9-9-7-9-11--|

   G#m                      E                                             

   E  E  E  E  E  E  E  E   E E E E E E E E                   
e|------------------------|--------------------|
B|------------------------|--------------------|
G|------------------------|--------------------|
D|------------------------|--------------------|
A|-11-11-11-11-11-11-11-7-|-7-7-7-7-7-6-7-9----| x2
E|------------------------|--------------------|



Piano intro.


    B        C#m           G#m      E          

    Q Q Q E Q Q Q E E E    Q Q Q E Q Q Q E E E                     
e|-----------------------|---------------------|
B|--4-----4-5-----5-4----|-4-----4-5-----5-4---|
G|----4-------6-------6--|---4-------4-------6-|
D|------4-------6--------|-----6-------6-------|
A|-----------------------|---------------------| x2
E|-----------------------|---------------------|

Octave:

    Q  Q  Q  E  Q  Q  Q  E  E  E    Q  Q  Q  E  Q  Q  Q  E  E  E
e|--11-------11-12-------12-11----|-11-------11-12-------12-11-----|
B|-----12----------14----------14-|----12----------12----------14--|
G|--------11----------13----------|-------13----------13-----------|
D|--------------------------------|--------------------------------|
A|--------------------------------|--------------------------------| x2
E|--------------------------------|--------------------------------|


Second Verse:

    B            C#m              G#m           E

    Q  Q  E E E Q  Q  E E E E E   Q  E E E Q  E E E E E E E E E            
e|-----7----7------7----7-----7-|----7-----7------7-----7-----7--|
B|--7-----7---7-5-----5---5-5---|-5----5-4----4/5---5-5---5-5----|
G|------------------------------|--------------------------------|
D|------------------------------|--------------------------------|
A|------------------------------|--------------------------------|
E|------------------------------|--------------------------------|

    Q  Q  E E E Q  Q  E E E E E   Q  Q E E E Q  E E E H            
e|-----7----7------7----7-----7-|----7---7--------7---7--|
B|--7-----7---7-5-----5---5-5---|-4----4---4-5--5---5----|
G|------------------------------|------------------------|
D|------------------------------|------------------------|
A|------------------------------|------------------------|
E|------------------------------|------------------------|


Pre-Chorus

        C#m         F#                Eb         G#m            

   SS   Q  Q  E E E Q E S S E E E E E Q Q E E E Q E S S E E E E E                   
e|----|-----------------------------------------------------------|
B|----|-----------------------------------------------------------|
G|-xx-|-6--6--6-6---------------------8-8-8-8-8-------------------|
D|-xx-|-6--6--6-6---4-4-x-x-4-4-4-4---8-8-8-6-6-6-6-x-x-6-6-6-6---|
A|-xx-|-4--4--4-4---4-4-x-x-4-4-4-4-0-6-6-6-6-6-6-6-x-x-6-6-6-6---|
E|----|-----------0-2-2-x-x-2-2-2-2-------------4-4-x-x-4-4-4-4-0-|


    A               E               A             Eb

    Q E S S E E E Q E S S E E E E E Q E E E E E E E S S E E E Q                                    
e|--------------------------------------------------------------|
B|--------------------------------------------------------------|
G|----------------------------------------------8-8-x-x-8-8-8-8-|
D|--7-7-x-x-7-7-7---2-2-2---2-2-2---7-7---7-7-7-8-8-x-x-8-8-8-8-|
A|--7-7-x-x-7-7-7---2-2-2---2-2-2---7-7---7-7-7-6-6-x-x-6-6-6-6-|
E|--5-5-x-x-5-5-5-0-0-0-0-0-0-0-0-0-5-5-0-5-5-5-----------------|


Chorus

This has a chorus effect mixed with a hall effect.

    G#m         Eb            E           B     A#m6       

    E E Q E E Q E E Q E E Q   E E Q E E Q Q E E Q E E      
e|--7-----7-----6-----6-----|-7-----7-------7----------|--|
B|--9-9-----9-----9-----8---|---9-----9---7---7---7----|--|
G|--8---8-----8-----8-----8-|-----9-----9-------9---9--|--|
D|--6-----------------------|--------------------------|--|
A|--6-----------------------|--------------------------|x3|
E|--------------------------|--------------------------|--|

*: The chord is played only at the beginning. When repeating, just play the 1st string.


    G#m         Eb          E           B     A#m6   
                                                  
    E E Q E E Q E E Q E E Q   E E Q E E Q E E Q E  E  E   E   E  
e|--7-----7-----6-----6-----|-7-----7-----9-----9--9--9---------|
B|----9-----9-----9-----8---|---9-----9-----9---9--9--9---------|
G|------8-----8-----8-----8-|-----9-----9----11-11-11-11--------|
D|--------------------------|-------------------11^-^--^--^--^14|
A|--------------------------|-----------------------------------|
E|--------------------------|-----------------------------------|


Verse 3:

    B        C#           G#        E                   

    Q Q E Q Q Q E E E Q Q Q E E E Q E E E E E Q
e|-----------------------------------------------|
B|----0---0---0---0---0---0---0-------0-----0-0--|
G|--4---4---3---3---3---1---1---1---1---1--------|
D|--------------------------------2-------2------|
A|-----------------------------------------------|
E|-----------------------------------------------|

    B        C#           G#        E                   

    Q Q E Q Q Q E E E E Q Q E E E E E Q E E E E E E   
e|--------------------------------------------------|
B|----0---0---0-----0---0---0-----0-----0---0-0---2-|
G|--4---4---3---3-3---3---1---1-1---1-------1-1---1-|
D|------------------------------------2---2-----2---|
A|--------------------------------------------------|
E|--------------------------------------------------|


Pre-Chorus II:


        C#m         F#                Eb         G#m            
          
   SS   Q  Q  E E E Q E S S E E E E E Q Q E E E Q Q Q E S S S S           
e|----|---------------------------------------------------------|
B|----|---------------------------------------------------------|
G|-xx-|-6--6--6-6---------------------8-8-8-8-8-4---------------|
D|-xx-|-6--6--6-6---4-4-x-x-4-4-4-4---8-8-8-6-6---6-------------|
A|-xx-|-4--4--4-4---4-4-x-x-4-4-4-4-0-6-6-6-6-6-----6-6---------|
E|----|-----------0-2-2-x-x-2-2-2-2---------------------4p0h4p0-|


    A               E               A             Eb

    Q E S S E E E Q E S S E E E E E Q E S S E E E E E S S E E E E
e|----------------------------------------------------------------|
B|----------------------------------------------------------------|
G|------------------------------------------------8-8-x-x-8-8-8-8-|
D|--7-7-x-x-7-7-7---2-2-2---2-2-2---7-7-x-x-7-7-7-8-8-x-x-8-8-8-8-|
A|--7-7-x-x-7-7-7---2-2-2---2-2-2---7-7-x-x-7-7-7-6-6-x-x-6-6-6-6-|
E|--5-5-x-x-5-5-5-0-0-0-0-0-0-0-0-0-5-5-x-x-5-5-5-----------------|


Chorus II


    G#m                 Eb                E                 

    E E S S E E E E E E E S S E E E E E   E E S S E E E E E
e|--------------------------------------|-------------------|
B|--------------------------------------|-------------------|
G|--------------------8-8-x-x-8-8-8-8-8-|-9-9-x-x-9-9-9-9-9-|
D|--6-6-x-x-6-6-6-6-6-8-8-x-x-8-8-8-8-8-|-9-9-x-x-9-9-9-9-9-|
A|--6-6-x-x-6-6-6-6-6-6-6-x-x-6-6-6-6-6-|-7-7-x-x-7-7-7-7-7-| 
E|--4-4-x-x-4-4-4-4-4-------------------|-------------------|
                                                 

    B                    B

    E E S S E E E E E
e|--------------------||---------------------|
B|--------------------||---------------------|
G|--------------------||---------------------|
D|--9-9-x-x-9-9-9-9-9-||---------------------|
A|--9-9-x-x-9-9-9-9-9-||---------------------|
E|--7-7-x-x-7-7-7-7-7-||-20\\\\\\\\\\\\\\\\\-|
 |                     |   (Tremolo picking)
 |1st ending           | 2nd ending


    G#m                 Ebm                E                 

    E E E E E E S S E E E E E E E E S S E E E E E E E S S
e|--------------------------------------------------------|
B|--------------------------------------------------------|
G|--------------------8-8-8-8-8-8-8-x-x-9-9-9-9-9-9-9-x-x-|
D|--6-6-6-6-6-6-6-x-x-8-8-8-8-8-8-8-x-x-9-9-9-9-9-9-9-x-x-|
A|--6-6-6-6-6-6-6-x-x-6-6-6-6-6-6-6-x-x-7-7-7-7-7-7-7-x-x-| 
E|--4-4-4-4-4-4-4-x-x-6-6-6-6-6-6-6-x-x-7-7-7-7-7-7-7-x-x-|


    B                    F#

    E E E E E E E S S    
e|--------------------||---------------------------|
B|--------------------||---------------------------|
G|--------------------||-9/11-11-11-11-11-11-11-11-|
D|--9-9-9-9-9-9-9-x-x-||-9/11-11-11-11-11-11-11-11-|
A|--9-9-9-9-9-9-9-x-x-||-7/9--9--9--9--9--9--9--9--|
E|--7-7-7-7-7-7-7-x-x-||-7/9--9--9--9--9--9--9--9--|
 |                     |
 | 1st ending          | 2nd ending


*: Before the second ending, the 7799-- has no dead notes.



Lyrics:

B       C#m                      G#m      E
Far away, this ship is taking me far away
                  B       C#m
Far away from the memories
                  G#m               E
Of the people who care if I live or die
B        C#m                   G#m       E
Starlight, I will be chasing a starlight
                    B    C#m
Until the end of my life
                     G#m         E
I don't know if it's worth it anymore

B C#m       G#m     E
Hold you in my arms
                 B C#m       G#m     E
I just wanted to hold you in my arms

B      C#m             G#m     E
My life, you electrify my life
                    B    C#m
Let's conspire to ignite
                        G#m                    E
All the souls that will die just to feel your life

C#m  F#m             Eb
I'll never let you go
       G#m
If you promise not to
A     E
Fade away
      A     Eb
Never fade away

G#m  Eb           E B   A#m6
Our hopes and expectations
G#m   Eb           E B   A#m6
Black Holes and Revelations
comments
print report bad tab
I want to post or [tab]
guest
You may want to rate the tab now too:
select rating
Please do not post tabs as comments. Select "correction" instead!