Oops, an error
Loading. Please wait.

Stockholm Syndrome Bass Tab

version 1
version 1
by Muse
87,574 views 87 this week
9 commentsread comments
1 2 3 4 5
excellent!
x 34
add to favorites
launch autoscroll
font size
0
reset
guitar tuner
Autoscroll
slow
fast
+/-
esc
set tempo
stop
Help us to improve Ultimate-Guitar.com Take our survey!
×
Author
Song: Stockholm Syndrome
Artist: Muse
Album: Absolution
Tabber: Colin "Domipheus" Riley [colin@colsoft.co.uk]
Instrument: Bass
Tuning: DADG

get your fingers warmed up before this one ;)

This is probably the biggest bunch of bullsh*te u will
ever read, but hey i tried ;)

This is played really fast, listen to the song, and
use that as a guide.

[Intro]

(when u do this slide, dont actually touch the string at
 fret 2, to be honest, it probably isnt 2 (anywhere pretty
 much works), but thats what I do. Listen to the song! :D)

G|---------------------------------------------------------------------|
D|---------------------------------------------------------------------|
A|---------------------------------------------------------------------|
D|--12/2-0-----12/2-0--12-12-12-12-12-12-12-12-12-0-0-0-0-0-0-0-0-0-0--|


[Verse]

(First time round this is played twice)

G|----------------------------------------------------------------------------------------------------|
D|----------------------------------------------------------------------------------------------------|
A|-5-5-5-5-5-5-5-5-5-5-5-5-5-5-5-5-5-5-5-5-5-5-5-5-5-5-5-5-5-5-5-5-5-5-5-5-5-5-5-5-5-5-5-5-5-5-5-5-5--|
D|----------------------------------------------------------------------------------------------------|

G|------------------------------------------------------------------------------------------|
D|------------------------------------------------------------------------------------------|
A|-7-7-7-7-7-7-7-7-8-8-8-8-8-8-8-8-9-9-9-9-9-9-9-9-10-10-10-10-10-10-10-10-8-8-8-8-8-8-8-8--|
D|------------------------------------------------------------------------------------------|

G|-------------------------------------------------------------------------|
D|-------------------------------------------------------------------------|
A|-7-7-7-7-7-7-7-7-6-6-6-6-6-6-6-6-12-12-12-12-12-12-12-12-0-0-0-0-0-0-0-0-|
D|-------------------------------------------------------------------------|


[Pre-Chorus 1]

(some fuzz effect on the bass, i use the big muff with
sustain 2/3's along and tone half way)

G|-------------------------------------------------------------------------|
D|-------------------------------------------------------------------------|
A|-------------------------------------------------------------------------|
D|-5-4-3-3-3-3-3-3-3-3-3-3-3-3-3-3-3-3-3-3-3-3-3-3-3-3-3-3-3-3-3-3-3-3-----|


[Chorus]

(no effect)

G|----------------------------------------------------------------|
D|----------------------------------------------------------------|
A|----------------------------------------------------------------|
D|-3-3-3-3-3-3-3-3-3-3-3-3-3-3-3-3-2-2-2-2-2-2-2-2-2-2-2-2-2-2-2-2|

------------------------------------------------------------|
------------------------------------------------------------|
------------------------------------------------------------|
-0-0-0-0-0-0-0-0-0-0-0-0-0-0-0-0-0-0-0-0-0-0-0-0-0-0-0(12)\-|
(the slide above is optional)

G|----------------------------------------------------------------|
D|----------------------------------------------------------------|
A|----------------------------------------------------------------|
D|-3-3-3-3-3-3-3-3-3-3-3-3-3-3-3-3-2-2-2-2-2-2-2-2-2-2-2-2-2-2-2-2|

----------------------------------------------------------------|
----------------------------------------------------------------|
----------------------------------------------------------------|
-0-0-0-0-0-0-0-0-0-0-0-0-0-0-0-8-8-8-8-8-8-8-8-8-8-8-8-8-8-8-8--|

..::Chorus-End

G|----------------------------------|
D|----------------------------------|
A|----------------------------------|
D|-33-333-66-666-77-777-10-10--11-0-|


[Verse 2]

G|----------------------------------------------------------------------------------------------------|
D|----------------------------------------------------------------------------------------------------|
A|-5-5-5-5-5-5-5-5-5-5-5-5-5-5-5-5-5-5-5-5-5-5-5-5-5-5-5-5-5-3-3-3-3-3-3-3-3-3-3-3-3-3-3-3-3-3-3-3-3--|
D|----------------------------------------------------------------------------------------------------|

G|----------------------------------------------------------------------------------------------------|
D|----------------------------------------------------------------------------------------------------|
A|-3-3-3-3-3-3-5-5-5-5-5-5-5-5-5-5-5-5-5-5-5-5-5-5-5-5-5-5-5-5-5-5-8-8-8-8-8-8-8-8-8-8-8-8-8-8-8-8-8--|
D|----------------------------------------------------------------------------------------------------|

G|---------------------------------------------------------------------------------------------|
D|-------(fret 11)-----------------------------------------------------------------------------|
A|-8-8-8-8-11-11-11-11-11-11-11-1-8-8-8-8-8-8-8-8-8-8-8-8-7-7-7-7-7-7-7-7-7-7-7-7-7-6-6-6-6-6--|
D|---------------------------------------------------------------------------------------------|


G|--------------------------------------------------------------------------|
D|------------(fret 12)-----------------------------------------------------|
A|-6-6-6-6-6-6-6-6-12-12-12-12-12-12-12-12-12-0-0-0-0-0-0-0-0-0-0-0---------|
D|---------------------------------------5-4-3------------------------------|
(fuzz on 5-4-3)


..:: Ending

G|-------------------------------------------------------------|
D|-------------------------------------------------------------|
A|----6-0-5-0-3-5---6-0-5-0-3-5---6-0-5-0-3-5---6-0------------|
D|-0-0-----------0-0-----------0-0-----------0-0---12/0-12/0---|


G|---------------------------------------------------------------------|
D|---------------------------------------------------------------------|
A|----6-0-5-0-3-5---6-0-5-0-3-5---6-0-5-0-3-5---6-0-5-0-3-5------------|
D|-0-0-----------0-0-----------0-0-----------0-0-----------0(let ring)-|

Order or play:


[Intro]

[Verse] x2
[Pre-Chorus]

[Chorus]

[Chorus-End]
[Verse]
[Pre-Chorus]

[Chorus]

[Chorus-End]
[Verse 2]

[Chorus]

[Chorus-End] x2
[Ending]
Suggest correction
comments
print report bad tab
9 comments total. Showing first comments.
+1 reply
JamesWard 30 wrote on July 27 2003, 12:00 am

All we need is a drum tab and were set to go!

Micro_cuts@hotmail.com

0 reply
Jorge_Martinez 50 wrote on August 19 2004, 12:00 am

ok simple one more time i say he uses an overdrive not fuzz not distortion he plays pick riff in the odb-3 anyway if you want to see the gear go to www.microcuts.net and you will see he use overdrive octave bass synthesizer line selector electroharmonix and digital delay aaaaargh!

+3 reply
chinko 241 wrote on October 17 2004, 12:00 am

close enough to be entirely right

guest
You may want to rate the tab now too:
select rating
Please do not post tabs as comments. Select "correction" instead!