Oops, an error
Loading. Please wait.

Stockholm Syndrome Bass Tab

version 1
version 1
by Muse
85,591 views 126 this week
9 commentsread comments
1 2 3 4 5
excellent!
x 33
add to favorites
launch autoscroll
font size
0
reset
guitar tuner
Tab Pro tools
  • play this tab
  • loop segment
  • change instrument
  • show fretboard
  • metronome
×
Best way to learn
"Stockholm Syndrome"
Autoscroll
slow
fast
+/-
esc
set tempo
stop
Contributor
Song: Stockholm Syndrome
Artist: Muse
Album: Absolution
Tabber: Colin "Domipheus" Riley [colin@colsoft.co.uk]
Instrument: Bass
Tuning: DADG

get your fingers warmed up before this one ;)

This is probably the biggest bunch of bullsh*te u will
ever read, but hey i tried ;)

This is played really fast, listen to the song, and
use that as a guide. 

.: Intro

(when u do this slide, dont actually touch the string at
 fret 2, to be honest, it probably isnt 2 (anywhere pretty 
 much works), but thats what I do. Listen to the song! :D)

G|--------------------------------------------------
D|--------------------------------------------------
A|---------------------(this is fret 12)------------
D|--12/2-0-----12/2-0--1212121212121212120000000000-


.:: Verse
(First time round this is played twice)

G|--------------------------------------------------
D|--------------------------------------------------
A|-5555555555555555555555555555555555555555555555555
D|--------------------------------------------------

G|-------------------------------------------------
D|---------------------------(fret 10)-------------
A|-777777778888888899999999101010101010101088888888
D|-------------------------------------------------

G|-----------------------------------------
D|--------------------(fret 12)------------
A|-7777777766666666121212121212121200000000
D|-----------------------------------------

.:: Prechorus 1
(some fuzz effect on the bass, i use the big muff with 
sustain 2/3's along and tone half way)

G|-----------------------------------------
D|-----------------------------------------
A|-----------------------------------------
D|-5-4-33333333333333333333333333333333----

.:: Chorus
(no effect)

G|------------------------------------------------------------------
D|------------------------------------------------------------------
A|------------------------------------------------------------------
D|-33333333333333332222222222222222000000000000000000000000000(12)\-
(the slide above is optional)

G|------------------------------------------------------------------
D|------------------------------------------------------------------
A|------------------------------------------------------------------
D|-333333333333333322222222222222220000000000000008888888888888888--

..::Chorus-End

G|----------------------------------
D|----------------------------------
A|----------------------------------
D|-33-333-66-666-77-777-10-10--11-0-

.:: Verse-2

G|--------------------------------------------------
D|--------------------------------------------------
A|-5555555555555555555555555555533333333333333333333
D|--------------------------------------------------



G|--------------------------------------------------
D|--------------------------------------------------
A|-3333335555555555555555555555555588888888888888888
D|--------------------------------------------------

G|--------------------------------------------------
D|-------(fret 11)----------------------------------
A|-8888111111111111111888888888888777777777777766666
D|--------------------------------------------------


G|----------------------------------------------
D|------------(fret 12)-------------------------
A|-6666666612121212121212121200000000000--------
D|---------------------------------------5-4-3-- 
(fuzz on 5-4-3)


..:: Ending

G|--------------------------------------
D|--------------------------------------
A|---605035--605035--605035--60---------
D|-00------00------00------00--12/0-12/0

G|---------------------------------------------
D|---------------------------------------------
A|---605035--605035--605035--605035------------
D|-00------00------00------00------0(let ring)-

Order or play:

Intro
Verse x2
Prechorus
Chorus
Chorus-End
Verse
Prechorus
Chorus
Chorus-End
Verse-2
Chorus
Chorus-End x2
Ending
comments
print report bad tab
9 comments total. Showing first comments.
+1 reply
JamesWard wrote on July 27 2003, 12:00 am

All we need is a drum tab and were set to go!

Micro_cuts@hotmail.com

0 reply
Jorge_Martinez wrote on August 19 2004, 12:00 am

ok simple one more time i say he uses an overdrive not fuzz not distortion he plays pick riff in the odb-3 anyway if you want to see the gear go to www.microcuts.net and you will see he use overdrive octave bass synthesizer line selector electroharmonix and digital delay aaaaargh!

+3 reply
chinko wrote on October 17 2004, 12:00 am

close enough to be entirely right

I want to post or [tab]
guest
You may want to rate the tab now too:
select rating
Please do not post tabs as comments. Select "correction" instead!