Oops, an error
Loading. Please wait.

Stockholm Syndrome Tab

version 1
by Muse
445,703 views 525 this week
62 commentsread comments
1 2 3 4 5
x 194
add to favorites
launch autoscroll
font size
0
reset
how to read this tab
guitar tuner
backing track
0:00
0:00
×
Best way to learn
"Stockholm Syndrome"
Autoscroll
slow
fast
+/-
esc
set tempo
stop
#----------------------------------PLEASE NOTE|--------------------------------# 
#This file is the author's own work and represents their interpretation of the # 
#song. You may only use this file for private study, scholarship, or research. # 
#------------------------------------------------------------------------------#

Artist: Muse
Song: Stockholm Syndrome
Album: Sing For Absolution
Transcribed By: James Ward 
E|mail: micro_cuts@hotmail.com - any questions or anything, just mail me.
Date: 14/07/2003
Notes: please don't rip it! But, to the best of my knowledge, this is 100% accurate.

24/07/2003 - Update: It was nearly 100% but now it should be totally.
cheers qotsa4@hotmail.com & hex37@hotmail.com

Tuning: Drop 'D' (DADGBe) NOT Eb!!!!!

there seems to be some confusion about what key this is in, it is D, the version
many people have download is a sped up version with the pitch raised.

Fuzz distortion
E|----------------------|-----------------------|-----------------------|-----------------------|
B|----------------------|-----------------------|-----------------------|-----------------------|
G|----------------------|-----------------------|-----------------------|-----------------------|
D|----------------------|-----------------------|-----------------------|-----------------------|
D|----------------------|-----------------------|-----------------------|-----------------------|
D|12-0-13-0-12-0-10h12--|-0-0-13-0-12-0-10h12---|-0-0-13-0-12-0-10h12---|-0-0-13-0-16h17p16-0---|



E|----------------------|-----------------------|---------------------------|-----------------------|
B|----------------------|-----------------------|---------------------------|-----------------------|
G|----------------------|-----------------------|---------------------------|-----------------------|
D|----------------------|-----------------------|---------------------------|-----------------------|
D|----------------------|-----------------------|---------------------------|-----------------------|
D|12-0-13-0-12-0-10h12--|-0-0-13-0-12-0-10h12---|--0-0-[10-10-10-10-10]--0--|-[10-10-10]0[10-10-10]-| <--[all
                                                                                                   harmonics]



E|----------------------|-----------------------|-----------------------|-----------------------|
B|----------------------|-----------------------|-----------------------|-----------------------|
G|----------------------|-----------------------|-----------------------|-----------------------|
D|----------------------|-----------------------|-----------------------|-----------------------|
D|----------------------|-----------------------|-----------------------|-----------------------|
D|12-0-13-0-12-0-10h12--|-0-0-13-0-12-0-10h12---|-0-0-13-0-12-0-10h12---|-0-0-13-0-16h17p16-0---|



E|----------------------|-----------------------|-----------------------|-----------------------|
B|----------------------|-----------------------|-----------------------|-----------------------|
G|----------------------|-----------------------|-----------------------|-----------------------|
D|----------------------|-----------------------|-----------------------|-----------------------|
D|----------------------|-----------------------|-----------------------|-----------------------|
D|12-0-13-0-12-0-10h12--|-0-0-13-0-12-0-10h12---|-0-0-13-0-12-0-10h12---|-0-0-13-0-16h17p16-0---|



E|----------------------|-----------------------|-----------------------|-----------------------|
B|----------------------|-----------------------|-----------------------|-----------------------|
G|----------------------|-----------------------|-----------------------|-----------------------|
D|----------------------|-----------------------|-----------------------|-----------------------|
D|----------------------|-----------------------|-----------------------|-----------------------|
D|12-0-13-0-12-0-10h12--|-0-0-13-0-12-0-10h12---|-0-0-13-0-12-0-10h12---|-0-0-13-0-16h17p16-0---|



E|----------------------|-----------------------|-----------------------|-----------------------|
B|----------------------|-----------------------|-----------------------|-----------------------|
G|----------------------|-----------------------|-----------------------|-----------------------|
D|----------------------|-----------------------|-----------------------|-----------------------|
D|----------------------|-----------------------|-----------------------|-----------------------|
D|12-0-13-0-12-0-10h12--|-0-0-13-0-12-0-10h12---|-0-0-13-0-12-0-10h12---|-0-0-13-0-16h17p16-0---|


@@@@@@@@@@@@@@@@@@@@@@@@@@@@@@@@@@@@@

Cleaner, perfect intonation required else it sounds pretty poor.

E|----------------------|-----------------------|-----------------------|-----------------------|
B|6-(x16)---------------|-5-(x16)---------------|-3-(x16)---------------|-3-(x16)---------------|
G|7---------------------|-5---------------------|-4---------------------|-3---------------------|
D|x---------------------|-x---------------------|-x---------------------|-x---------------------|
D|5---------------------|-3---------------------|-2---------------------|-1---------------------|
D|----------------------|-----------------------|-----------------------|-----------------------|



E|----------------------|-----------------------|-----------------------|-----------------------|
B|6-(x16)---------------|-5-(x16)---------------|-5-(x16)---------------|-6-(x16)---------------|
G|7---------------------|-6---------------------|-5---------------------|-7---------------------|
D|x---------------------|-x---------------------|-x---------------------|-x---------------------|
D|5---------------------|-4---------------------|-3---------------------|-5---------------------|
D|----------------------|-----------------------|-----------------------|-----------------------|



E|----------------------|-----------------------|-----------------------|-----------------------|
B|11-(x16)--------------|-10-(x16)--------------|-8-(x16)---------------|-8-(x16)---------------|
G|12--------------------|-10--------------------|-9---------------------|-8---------------------|
D|x---------------------|-x---------------------|-x---------------------|-x---------------------|
D|10--------------------|-8---------------------|-7---------------------|-6---------------------|
D|----------------------|-----------------------|-----------------------|-----------------------|



E|----------------------|-----------------------|-----------------------|-----------------------|
B|8-(x16)---------------|-8-(x16)---------------|-10-(x16)--------------|-10-(x16)--------------|
G|9---------------------|-9---------------------|-9---------------------|-9---------------------|
D|x---------------------|-x---------------------|-x---------------------|-x---------------------|
D|7---------------------|-7---------------------|-7---------------------|-7---------------------|
D|----------------------|-----------------------|-----------------------|-----------------------|

@@@@@@@@@

E|----------------------|-----------------------|-----------------------|-----------------------|
B|6-(x16)---------------|-5-(x16)---------------|-3-(x16)---------------|-3-(x16)---------------|
G|7---------------------|-5---------------------|-4---------------------|-3---------------------|
D|x---------------------|-x---------------------|-x---------------------|-x---------------------|
D|5---------------------|-3---------------------|-2---------------------|-1---------------------|
D|----------------------|-----------------------|-----------------------|-----------------------|



E|----------------------|-----------------------|-----------------------|-----------------------|
B|6-(x16)---------------|-5-(x16)---------------|-5-(x16)---------------|-6-(x16)---------------|
G|7---------------------|-6---------------------|-5---------------------|-7---------------------|
D|x---------------------|-x---------------------|-x---------------------|-x---------------------|
D|5---------------------|-4---------------------|-3---------------------|-5---------------------|
D|----------------------|-----------------------|-----------------------|-----------------------|



E|----------------------|-----------------------|-----------------------|-----------------------|
B|11-(x16)--------------|-10-(x16)--------------|-8-(x16)---------------|-8-(x16)---------------|
G|12--------------------|-10--------------------|-9---------------------|-8---------------------|
D|x---------------------|-x---------------------|-x---------------------|-x---------------------|
D|10--------------------|-8---------------------|-7---------------------|-6---------------------|
D|----------------------|-----------------------|-----------------------|-----------------------|



E|----------------------|-----------------------|-----------------------|-----------------------|
B|8-(x16)---------------|-8-(x16)---------------|-10-(x16)--------------|-10-(x8)---------------|
G|9---------------------|-9---------------------|-9---------------------|-9---------------------|
D|x---------------------|-x---------------------|-x---------------------|-x---(finish bar with--|
D|7---------------------|-7---------------------|-7---------------------|-7-----the loud bit----|
D|----------------------|-----------------------|-----------------------|-----------below)------|


@@@@@@@@@@@@@@@@@@@@@@@@@@@@@@@@@@@@@

(LOUD! - uses a zvex fuzz factory and maybe a 'big muff'?)
E|----------------------|
B|----------------------|
G|----------------------|
D|x-x--5------4---------|
D|x-x--5------4---------|
E|x-x--5------4---------|


E|----------------------|-----------------------|-----------------------|-----------------------|
B|----------------------|-----------------------|-----------------------|-----------------------|
G|----------------------|-----------------------|-----------------------|-----------------------|
D|-3-(x8)---------------|--3-(x8)---------------|--3-(x8)---------------|--3-(x8)---------------|
D|-3--------------------|--3--------------------|--3--------------------|--3--------------------|
D|-3--------------------|--3--------------------|--3--------------------|--3--------------------|

(substitute for piano (which arpeggios and adlibs through the same chords) - slight distortion,
much quieter) (For pianists - Left hand does Chords, right hand arpeggios up and down --> but you
probably knew that)

E|----------------------|-----------------------|-----------------------|-----------------------|
B|----------------------|-----------------------|-----------------------|-----------------------|
G|----------------------|-----------------------|-----------------------|-----------------------|
D|-3-(x8)---------------|--3-(x8)---------------|--2-(x8)---------------|--2-(x8)---------------|
D|-3--------------------|--3--------------------|--2--------------------|--2--------------------|
D|-3--------------------|--3--------------------|--2--------------------|--2--------------------|


E|----------------------|-----------------------|-----------------------|-----------------------|
B|----------------------|-----------------------|-----------------------|-----------------------|
G|----------------------|-----------------------|-----------------------|-----------------------|
D|-0-(x8)---------------|--0-(x8)---------------|--0-(x8)---------------|--0-(x8)---------------|
D|-0--------------------|--0--------------------|--0--------------------|--0--------------------|
D|-0--------------------|--0--------------------|--0--------------------|--0--------------------|


E|----------------------|-----------------------|-----------------------|-----------------------|
B|----------------------|-----------------------|-----------------------|-----------------------|
G|----------------------|-----------------------|-----------------------|-----------------------|
D|-3-(x8)---------------|--3-(x8)---------------|--2-(x8)---------------|--2-(x8)---------------|
D|-3--------------------|--3--------------------|--2--------------------|--2--------------------|
D|-3--------------------|--3--------------------|--2--------------------|--2--------------------|


E|----------------------|-----------------------|-----------------------|-----------------------|
B|----------------------|-----------------------|-----------------------|-----------------------|
G|----------------------|-----------------------|-----------------------|-----------------------|
D|-0-(x8)---------------|--0-(x8)---------------|--8-(x8)---------------|--8-(x8)---------------|
D|-0--------------------|--0--------------------|--8--------------------|--8--------------------|
D|-0--------------------|--0--------------------|--8--------------------|--8--------------------|


!Heavy!


E|----------------------|-----------------------|
B|----------------------|-----------------------|
G|----------------------|-----------------------|
D|-3-(x8)----6-(x8)-----|--7-(x8)-10-(x4)-11-12-|
D|-3---------6----------|--7------10------11-12-|
D|-3---------6----------|--7------10------11-12-|




E|----------------------|-----------------------|----------------------------|--------------|
B|----------------------|-----------------------|----------------------------|--------------|
G|----------------------|-----------------------|----------------------------|--------------|
D|----------------------|-----------------------|----------------------------|--------------|
D|----------------------|-----------------------|----------------------------|--------------|
D|12-0-13-0-12-0-10h12--|-0-0-13-0-12-0-10h12-0-|-0-[10]-0-[10]-0-[10]-0-[10]|-0-0-[10]-----| <-- [all
                                                                                             harmonics]


@@@@@@@@@@@@@@@@@@@@@@@@@@@@@@@@@@@@@@@@@@@@

Cleaner

E|----------------------|-----------------------|-----------------------|-----------------------|
B|6-(x16)---------------|-5-(x16)---------------|-3-(x16)---------------|-3-(x16)---------------|
G|7---------------------|-5---------------------|-4---------------------|-3---------------------|
D|x---------------------|-x---------------------|-x---------------------|-x---------------------|
D|5---------------------|-3---------------------|-2---------------------|-1---------------------|
D|----------------------|-----------------------|-----------------------|-----------------------|



E|----------------------|-----------------------|-----------------------|-----------------------|
B|6-(x16)---------------|-5-(x16)---------------|-5-(x16)---------------|-6-(x16)---------------|
G|7---------------------|-6---------------------|-5---------------------|-7---------------------|
D|x---------------------|-x---------------------|-x---------------------|-x---------------------|
D|5---------------------|-4---------------------|-3---------------------|-5---------------------|
D|----------------------|-----------------------|-----------------------|-----------------------|



E|----------------------|-----------------------|-----------------------|-----------------------|
B|11-(x16)--------------|-10-(x16)--------------|-8-(x16)---------------|-8-(x16)---------------|
G|12--------------------|-10--------------------|-9---------------------|-8---------------------|
D|x---------------------|-x---------------------|-x---------------------|-x---------------------|
D|10--------------------|-8---------------------|-7---------------------|-6---------------------|
D|----------------------|-----------------------|-----------------------|-----------------------|



E|----------------------|-----------------------|-----------------------|-----------------------|
B|8-(x16)---------------|-8-(x16)---------------|-10-(x16)--------------|-10-(x6)---------------|
G|9---------------------|-9---------------------|-9---------------------|-9---------------------|
D|x---------------------|-x---------------------|-x---------------------|-x---(finish bar with--|
D|7---------------------|-7---------------------|-7---------------------|-7----the loud bit)----|
D|----------------------|-----------------------|-----------------------|----------below)-------|



@@@@@@@@@@@@@@@@@@@@@@@@@@@@@@@@@@@@@

(LOUD! - uses a zvex fuzz factory and maybe a 'big muff'?)
E|----------------------|
B|----------------------|
G|----------------------|
D|x-x--5------4---------|
D|x-x--5------4---------|
E|x-x--5------4---------|


E|----------------------|-----------------------|-----------------------|-----------------------|
B|----------------------|-----------------------|-----------------------|-----------------------|
G|----------------------|-----------------------|-----------------------|-----------------------|
D|-3-(x8)---------------|--3-(x8)---------------|--3-(x8)---------------|--3-(x8)---------------|
D|-3--------------------|--3--------------------|--3--------------------|--3--------------------|
D|-3--------------------|--3--------------------|--3--------------------|--3--------------------|

(substitute for piano (which arpeggios and adlibs through the same chords)
- slight distortion, much quieter)

E|----------------------|-----------------------|-----------------------|-----------------------|
B|----------------------|-----------------------|-----------------------|-----------------------|
G|----------------------|-----------------------|-----------------------|-----------------------|
D|-3-(x8)---------------|--3-(x8)---------------|--2-(x8)---------------|--2-(x8)---------------|
A|-3--------------------|--3--------------------|--2--------------------|--2--------------------|
D|-3--------------------|--3--------------------|--2--------------------|--2--------------------|


E|----------------------|-----------------------|-----------------------|-----------------------|
B|----------------------|-----------------------|-----------------------|-----------------------|
G|----------------------|-----------------------|-----------------------|-----------------------|
D|-0-(x8)---------------|--0-(x8)---------------|--0-(x8)---------------|--0-(x8)---------------|
D|-0--------------------|--0--------------------|--0--------------------|--0--------------------|
D|-0--------------------|--0--------------------|--0--------------------|--0--------------------|


E|----------------------|-----------------------|-----------------------|-----------------------|
B|----------------------|-----------------------|-----------------------|-----------------------|
G|----------------------|-----------------------|-----------------------|-----------------------|
D|-3-(x8)---------------|--3-(x8)---------------|--2-(x8)---------------|--2-(x8)---------------|
D|-3--------------------|--3--------------------|--2--------------------|--2--------------------|
D|-3--------------------|--3--------------------|--2--------------------|--2--------------------|


E|----------------------|-----------------------|-----------------------|-----------------------|
B|----------------------|-----------------------|-----------------------|-----------------------|
G|----------------------|-----------------------|-----------------------|-----------------------|
D|-0-(x8)---------------|--0-(x8)---------------|--8-(x8)---------------|--8-(x8)---------------|
D|-0--------------------|--0--------------------|--8--------------------|--8--------------------|
D|-0--------------------|--0--------------------|--8--------------------|--8--------------------|


!Heavy!


E|----------------------|-----------------------|
B|----------------------|-----------------------|
G|----------------------|-----------------------|
D|-3-(x8)----6-(x8)-----|--7-(x8)-10-(x4)-11-12-|
D|-3---------6----------|--7------10------11-12-|
D|-3---------6----------|--7------10------11-12-|


E|----------------------|-----------------------|-----------------------|-----------------------|
B|----------------------|-----------------------|-----------------------|-----------------------|
G|----------------------|-----------------------|-----------------------|-----------------------|
D|----------------------|-----------------------|-----------------------|-----------------------|
D|----------------------|-----------------------|-----------------------|-----------------------|
D|12-0-13-0-12-0-10h12--|-0-0-13-0-12-0-10h12---|-0-0-13-0-12-0-10h12---|-0-0-13-0-16h17p16-0---|

E|----------------------|-----------------------|-------------------------|-----------------------|
B|----------------------|-----------------------|-------------------------|-----------------------|
G|----------------------|-----------------------|-------------------------|-----------------------|
D|----------------------|-----------------------|-------------------------|-----------------------|
D|----------------------|-----------------------|-------------------------|-----------------------|
D|12-0-13-0-12-0-10h12--|-0-0-13-0-12-0-10h12---|--0-[10-10-10-10-10]--0--|-[10-10-10]0[10-10-10]-| <-- [all
                                                                                                  harmonics]




E|----------------------|-----------------------|-----------------------|-----------------------| Wah (Closed)
B|----------------------|-----------------------|-----------------------|-----------------------|         |
G|----------------------|-----------------------|-----------------------|-----------------------|         |
D|----------------------|-----------------------|-----------------------|-----------------------|         |
D|----------------------|-----------------------|-----------------------|-----------------------|         |
D|12-0-13-0-12-0-10h12--|-0-0-13-0-12-0-10h12---|-0-0-13-0-12-0-10h12---|-0-0-13-0-12-0-10h12---|         |
                                                                                                          |
                                                                                                          |
E|----------------------|-----------------------|-----------------------|-----------------------|         |
B|----------------------|-----------------------|-----------------------|-----------------------|         |
G|----------------------|-----------------------|-----------------------|-----------------------|         |
D|----------------------|-----------------------|-----------------------|-----------------------|         |
D|----------------------|-----------------------|-----------------------|-----------------------|         |
D|12-0-13-0-12-0-10h12--|-0-0-13-0-12-0-10h12---|-0-0-13-0-12-0-10h12---|-0-0-13-0-12-0-10h12---|         |
                                                                                                          |
                                                                                                          |
E|----------------------|-----------------------|-----------------------|-----------------------|         |
B|----------------------|-----------------------|-----------------------|-----------------------|         |
G|----------------------|-----------------------|-----------------------|-----------------------|         |
D|----------------------|-----------------------|-----------------------|-----------------------|         |
D|----------------------|-----------------------|-----------------------|-----------------------|         |
D|12-0-13-0-12-0-10h12--|-0-0-13-0-12-0-10h12---|-0-0-13-0-12-0-10h12---|-0-0-13-0-12-0-10h12---|         |
                                                                                                          |
                                                                                                          |
E|----------------------|-----------------------|-----------------------|-----------------------|         |
B|----------------------|-----------------------|-----------------------|-----------------------|         |
G|----------------------|-----------------------|-----------------------|-----------------------|         |
D|----------------------|-----------------------|-----------------------|-----------------------|         |
D|----------------------|-----------------------|-----------------------|-----------------------|         |
D|12-0-13-0-12-0-10h12--|-0-0-13-0-12-0-10h12---|-0-0-13-0-12-0-10h12---|-0-0-13-0-12-0-10h12---|      (open)
                                                                                                          |
                                                                                                          |
E|--------------------------------|---------------------------------|                                     | 
B|--------------------------------|---------------------------------|                                     |
G|--------------------------------|---------------------------------|                                     |
D|8-8-5-5-0-0-8-8-5-5-0-0-8-8-5-5-|-7-7-3-3-0-0-7-7-3-3-0-0-7-7-3-3-|                                     |
D|--------------------------------|---------------------------------|                                     |
D|--------------------------------|---------------------------------|                                     |
                                                                                                          |
                                                                                                          |
E|--------------------------------|---------------------------------|                                     | 
B|--------------------------------|---------------------------------|                                     | 
G|--------------------------------|---------------------------------|                                     |
D|5-5-2-2-0-0-5-5-2-2-0-0-5-5-2-2-|-5-5-1-1-0-0-5-5-1-1-0-0-5-5-1-1-|                                     |
D|--------------------------------|---------------------------------|                                     |
D|--------------------------------|---------------------------------|                                 (Closed)

Fast picking (yes, more)

E|----------------------|-----------------------|-----------------------|-----------------------|           
B|----------------------|-----------------------|-----------------------|-----------------------|
G|----------------------|-----------------------|-----------------------|-----------------------|
D|-7-0-8-0-7-0-5h7------|--0-0-8-0-7-0-5h7------|--0-0-8-0-7-0-5h7------|--0-0-8-0-7-0-5h7------|
D|----------------------|-----------------------|-----------------------|-----------------------|
D|----------------------|-----------------------|-----------------------|-----------------------|

E|----------------------|-----------------------|-----------------------|
B|----------------------|-----------------------|-----------------------|
G|----------------------|-----------------------|-----------------------|
D|-0-0-8-0-7-0-5h7------|--0-0-8-0-7-0-5h7------|---[10--10--10--10]----|
D|----------------------|-----------------------|---[10--10--10--10]----|
D|----------------------|-----------------------|---[10--10--10--10]----|


@@@@@@@@@@@@@@@@@@@@@@@@@@@@@@@@@@@@@

(LOUD! - uses a zvex fuzz factory and maybe a 'big muff'?)
E|----------------------|
B|----------------------|
G|----------------------|
D|---5--------4---------|
D|---5--------4---------|
E|---5--------4---------|


(substitute for piano (which arpeggios and adlibs through the same chords)
- slight distortion, much quieter)

E|----------------------|-----------------------|-----------------------|-----------------------|
B|----------------------|-----------------------|-----------------------|-----------------------|
G|----------------------|-----------------------|-----------------------|-----------------------|
D|-3-(x8)---------------|--3-(x8)---------------|--2-(x8)---------------|--2-(x8)---------------|
D|-3--------------------|--3--------------------|--2--------------------|--2--------------------|
D|-3--------------------|--3--------------------|--2--------------------|--2--------------------|


E|----------------------|-----------------------|-----------------------|-----------------------|
B|----------------------|-----------------------|-----------------------|-----------------------|
G|----------------------|-----------------------|-----------------------|-----------------------|
D|-0-(x8)---------------|--0-(x8)---------------|--0-(x8)---------------|--0-(x8)---------------|
D|-0--------------------|--0--------------------|--0--------------------|--0--------------------|
D|-0--------------------|--0--------------------|--0--------------------|--0--------------------|


E|----------------------|-----------------------|-----------------------|-----------------------|
B|----------------------|-----------------------|-----------------------|-----------------------|
G|----------------------|-----------------------|-----------------------|-----------------------|
D|-3-(x8)---------------|--3-(x8)---------------|--2-(x8)---------------|--2-(x8)---------------|
D|-3--------------------|--3--------------------|--2--------------------|--2--------------------|
D|-3--------------------|--3--------------------|--2--------------------|--2--------------------|


E|----------------------|-----------------------|-----------------------|-----------------------|
B|----------------------|-----------------------|-----------------------|-----------------------|
G|----------------------|-----------------------|-----------------------|-----------------------|
D|-0-(x8)---------------|--0-(x8)---------------|--8-(x8)---------------|--8-(x8)---------------|
D|-0--------------------|--0--------------------|--8--------------------|--8--------------------|
D|-0--------------------|--0--------------------|--8--------------------|--8--------------------|


! Heavy ! HEAVY !  (jump around)


E|----------------------|-----------------------|
B|----------------------|-----------------------|
G|----------------------|-----------------------|
D|-3-(x8)----6-(x8)-----|--7-(x8)-10-(x4)-11-12-|
D|-3---------6----------|--7------10------11-12-|
D|-3---------6----------|--7------10------11-12-|

E|----------------------|-----------------------|
B|----------------------|-----------------------|
G|----------------------|-----------------------|
D|-3-(x8)----6-(x8)-----|--7-(x8)-10-(x4)-11-12-|
D|-3---------6----------|--7------10------11-12-|
D|-3---------6----------|--7------10------11-12-|

E|----------------------|-----------------------|-----------------------|-----------------------|
B|----------------------|-----------------------|-----------------------|-----------------------|
G|----------------------|-----------------------|-----------------------|-----------------------|
D|-0-0-13-0-12-0-10-12--|--0-0-13-0-12-0-10-12--|--0-0-13-0-12-0-10-12--|--0-0-13-0-12-0-10-12--|
D|-0-0-13-0-12-0-10-12--|--0-0-13-0-12-0-10-12--|--0-0-13-0-12-0-10-12--|--0-0-13-0-12-0-10-12--|
D|-0-0-13-0-12-0-10-12--|--0-0-13-0-12-0-10-12--|--0-0-13-0-12-0-10-12--|--0-0-13-0-12-0-10-12--|

E|----------------------|-----------------------|-----------------------|-----------------------|
B|----------------------|-----------------------|-----------------------|-----------------------|
G|----------------------|-----------------------|-----------------------|-----------------------|
D|-0-0-13-0-12-0-10-12--|--0-0-13-0-12-0-10-12--|--0-0-13-0-12-0-10-12--|--0-0-13-0-12-0-10-12--|
D|-0-0-13-0-12-0-10-12--|--0-0-13-0-12-0-10-12--|--0-0-13-0-12-0-10-12--|--0-0-13-0-12-0-10-12--|
D|-0-0-13-0-12-0-10-12--|--0-0-13-0-12-0-10-12--|--0-0-13-0-12-0-10-12--|--0-0-13-0-12-0-10-12--|

E|----------------------|
B|----------------------|
G|----------------------|
D|- 0 --> --------------|
D|- 0 --> --------------|
D|- 0 --> --------------|



************************************

| x  Dead note
| h  Hammer-on
| p  Pull-off 

************************************
Suggest correction
comments
print report bad tab
62 comments total. Showing first comments.
0 reply
JamesWard 30 Jul 15, 2003 08:00 PM

By the author: after reviewing it a little, the harmonics aren't 100% accurate, but they go with the rhythm, where they come in it correct, but im not too sure it all there.

also, its not exactly on the 10th harmonic, but play around there with a bit of gain and you'll find it!

Good luck, it's a f***ing awesome song!

0 reply
JamesWard 30 Jul 26, 2003 08:00 PM

I have sent another version of this with a couple corrections, if you want it, go to www.musclemuse.com

cheers

James

0 reply
ThomBedford 10 Sep 23, 2003 08:00 PM

I have no quarrels with this tab, it\'s absolutely amazing! The only reason I found trouble with it at first is because I didn\'t have the CD, but when listening to the song, the tab is so easy to follow!

FIVE STARS MATE! *****

I doubt it means anything for you though...You probably won\'t even read this, but for anyone else who does, nit-picking about a few incorrect harmonics is childish. On my guitar, it works as the 10th harmonic, not natural though. So yeah, brilliant tabbing, keep it up!

guest
You may want to rate the tab now too:
select rating
Wanna post a correction for this tab? Suggest correction