Oops, an error
Loading. Please wait.

Sunburn Bass

version 2
version 2

Whole song

by Muse
28,325 views 60 this week
8 commentsread comments
1 2 3 4 5
x 38
add to favorites
×
Save as Personal and add changes to this tab that will be seen only by you. Learn more ›
×
You can save this tab as Personal to edit and correct it or add notes. All changes will be seen only by you. Learn more »
save as personal
new!
launch autoscroll
font size
0
reset
guitar tuner
Autoscroll
slow
fast
+/-
esc
set tempo
stop
Author
Tuning
D A D G
Drop D tuning
r = let ring

[Part 1]
G:|----------------------|    G:|---------------------|
D:|----------------------| or D:|-2r------------------|
A:|-7r-------------------|    A:|------0r---3r---0r---|
D:|------7r---10r---7r---|    D:|---------------------|

[Part 2]
G:|-----------------------------------------------------|
D:|-----7-5-6-7-5-6-7-5-7-------------------------------|
A:|-0-0-------------------5-6-7-7-7---------------------|
D:|---------------------------------0-1-2-0-1-2-0-2-0-2-|

[Part 3]
G:|-----------------------------------------------------|
D:|-----------------------------------------------------|
A:|-----------------------------------------------------|
D:|-7-7-7-5-6-7-5-6-7-5-7-0-1-2-2-2-0-1-2-0-1-2-0-2-0-2-|

-Rest-
[Part 1]     x2
[Part 2]     x4
-Rest-
[Part 1]     x2
[Part 2]     x4
-Rest-
[Part 2]     x4
[Part 3]     x8
Suggest correction
comments
print report bad tab
8 comments total. Showing first comments.
+8 reply
tiftcte 595 Mar 01, 2004 07:00 PM

wow this perfect, tab some more you can, oh, does anyone have the bass tab for recess

+7 reply
m3cy 10 Aug 17, 2007 06:54 AM

great tab :D

+5 reply
kranoscorp 220 Nov 29, 2007 05:29 PM

tab is perfect, good job

guest
You may want to rate the tab now too:
select rating
Wanna post a correction for this tab? Suggest correction