Oops, an error
Loading. Please wait.

Supermassive Black Hole Tab

by Muse
172,853 views 51 this week
10 commentsread comments
1 2 3 4 5
worth learning
x 11
add to favorites
launch autoscroll
font size
0
reset
how to read this tab
guitar tuner
Autoscroll
slow
fast
+/-
esc
set tempo
stop
Help us to improve Ultimate-Guitar.com Take our survey!
×
Difficulty
intermediate
This is the song that was exclusively played on Radio 1 today (8/5/06) and I later 
it and tabbed it out. Very easy song. This isn't perfect but is not a bad start... what do 
think?

SONG CHORDS: Em - Am - G - Bm

Intro
|---------------|------------------|-------------------|-------------------|
|---------------|------------------|-------------------|-------------------|
|---------------|------------------|-------------------|-------------------|
|---------------|---------x-x------|-------------------|---------x-x-------|
|------10-------|----10---x-x------|------10-(10)------|----10---x-x-------|
|-0--------0--0-|-0-----0-x-x-0-0--|-0------------0--0-|-0-----0-x-x-0-0---|

Various 10's are bent.

Gtr I
|-------------------|--------------------|
|-------------------|--------------------|
|-------------------|--------------------|
|-------------------|---------x-x--------|
|------10-(10)------|----10---x-x--------|
|-0------------0--0-|-0-----0-x-x-0-(0)--|

|-------------------------|----------------------------|
|-------------------------|----------------------------|
|-------------------------|----------------------------|
|----x-x------------x-x---|----------------------------|
|----x-x-10-(10)----x-x---|----12b14-12-10h12p10-------|
|-0--x-x---------0--x-x-0-|-0--------------------12----|


Pre-Verse
|-----------------|-----------------|-----------------|-----------------|
|-----------------|-----------------|-----------------|-----------------|
|-----------------|-----------------|-----------------|-----------------|
|-----------------|-----------------|-----------------|-----------------|
|-----10----5-5-5-|-----10----7-7-6-|-----10----5-5-5-|-----10----7-7-8-|
|-0-0----0--3-3-3-|-0-0----0--5-5-4-|-0-0----0--3-3-3-|-0-0----0--5-5-6-|

|-----------------|-----------------|
|-----------------|-----------------|
|-----------------|-----------------|
|-----------------|-----------------|
|-----10----5-5-5-|-----10----7-7-6-|
|-0-0----0--3-3-3-|-0-0----0--5-5-4-|

|-----------------|-----------------------------------|
|-----------------|-----------------------------------|
|-----------------|-----------------------------------|
|-----------------|-----------------------------------|
|-----10----5-5-5-|-----10----12b14-12-10h12p10-------|
|-0-0----0--3-3-3-|-0-0----0--------------------12----|
[tab]

Bass

Gtrs I, II
|-----------------|-----------------|-----------------|-----------------|
|-----------------|-----------------|-----------------|-----------------|
|-----------------|-----------------|-----------------|-----------------|
|-0-0-15-0--3-3-3-|-0-0-15-0--5-5-4-|-0-0-15-0--3-3-3-|-0-0-15-0--5-5-6-|


|-----------------|-----------------|-----------------|---------------|
|-----------------|-----------------|-----------------|---------------|
|-----------------|-----------------|-----------------|---------------|
|-0-0-15-0--3-3-3-|-0-0-15-0--5-5-4-|-0-0-15-0--3-3-3-|-0-0-15-0------|


|-----2-----2-----|-----------------|-----4-----4-2-0-|-----------------|
|-----------------|-----5-----------|-----------------|-2---------------|
|-0-0---0-0---0---|-----------0-0-1-|-2-2---2-2-------|-----------------|
|---------------4-|-3-3---3-3-------|-----------------|---0-0-2-2-3-3-4-|

enjoy!
Suggest correction
comments
print report bad tab
10 comments total. Showing first comments.
0 reply
Bozjoarmstrong 360 wrote on January 25 2007, 10:33 am

Pretty good tab! i didnt think it would be so easy!

-1 reply
q.o.t.s.a.kid 10 wrote on September 23 2007, 05:27 am

rubbish 0 stars

+1 reply
q.o.t.s.a.kid 10 wrote on September 23 2007, 05:29 am

everythink is wrong! incorrect

guest
You may want to rate the tab now too:
select rating
Wanna post a correction for this tab? Suggest correction