Oops, an error
Loading. Please wait.
We have an official Supermassive Black Hole tab made by UG professional guitarists. Check out the tab »
×
by Muse
9,649 views 6 this week
2 commentsread comments
1 2 3 4 5
x 4
add to favorites
×
Save as Personal and add changes to this tab that will be seen only by you. Learn more ›
×
You can save this tab as Personal to edit and correct it or add notes. All changes will be seen only by you. Learn more »
launch autoscroll
font size
0
reset
guitar tuner
backing track
0:00
0:00
edit
Autoscroll
slow
fast
+/-
esc
set tempo
stop
Author
Difficulty
Track: Supermassive Black Hole
Artist: Muse
Album: Black Holes and Revelations
Tabbed by: PitchImperfect
Date: 04.07.06

Tuning: Standard

~ = rest

Intro
G|-----------------------------------------------------------------|
D|-----------------------------------------------------------------|
A|-----------------------------------------------------------------|
E|-0---------------0---------------0---------------0---------------|

G|-----------------------------------------------------------------|
D|-----------------------------------------------------------------|
A|------10--------------10--------------10--------------10---------|
E|-0--00--0--3-3-3-0--00--0--5-5-3-0--00--0--3-3-3-0--00--0--5-5-7-|

G|-----------------------------------------------------------------|
D|-----------------------------------------------------------------|
A|------10--------------10--------------10--------------10---------|
E|-0--00--0--3-3-3-0--00--0--5-5-3-0--00--0--3-3-3-0--00--0--------|


Verse
Nothing played


Bridge and Chorus
G|-----------------------------------------------------------------|
D|-----7-----7-7-------5---------------9-----8-7-5-----2-----------|
A|-----------------------------------------------------------------|
E|-5-55--5-5-----4-3-33--3-3-5-5-6-7-77--7-7-------0-00--2---3-3-4-|

G|-----------------------------------------------------------------|
D|-----7-----7-7-------5---------------9-----8-7-5-----------------|
A|-----------------------------------------------------------------|
E|-5-55--5-5-----4-3-33--3-3-5-5-6-7-77--7-7-------~--0--2-2-333-4-|

G|-----------------------------------------------------------------|
D|-----7-----7-7-------5---------------9-----8-7-5-----2-----------|
A|-----------------------------------------------------------------|
E|-5-55--5-5-----4-3-33--3-3-5-5-6-7-77--7-7-------0-00--2---3-3-4-|

G|-----------------------------------------------------------------|
D|-----7-----7-7-------5---------------9-----8-7-5-----------------|
A|-----------------------------------------------------------------|
E|-5-55--5-5-----4-3-33--3-3-5-5-6-7-77--7-7-----------------------|


Verse
G|-----------------------------------------------------------------|
D|-----------------------------------------------------------------|
A|-----------------------------------------------------------------|
E|-0---------------0---------------0---------------0---------------|


Bridge and Chorus
G|-----------------------------------------------------------------|
D|-----7-----7-7-------5---------------9-----8-7-5-----2-----------|
A|-----------------------------------------------------------------|
E|-5-55--5-5-----4-3-33--3-3-5-5-6-7-77--7-7-------0-00--2---3-3-4-|

G|-----------------------------------------------------------------|
D|-----7-----7-7-------5---------------9-----8-7-5-----------------|
A|-----------------------------------------------------------------|
E|-5-55--5-5-----4-3-33--3-3-5-5-6-7-77--7-7-------~--0--2-2-333-4-|

G|-----------------------------------------------------------------|
D|-----7-----7-7-------5---------------9-----8-7-5-----2-----------|
A|-----------------------------------------------------------------|
E|-5-55--5-5-----4-3-33--3-3-5-5-6-7-77--7-7-------0-00--2---3-3-4-|

G|-----------------------------------------------------------------|
D|-----7-----7-7-------5---------------9-----8-7-5-----------------|
A|-----------------------------------------------------------------|
E|-5-55--5-5-----4-3-33--3-3-5-5-6-7-77--7-7-----------------------|


Instrumental sort of bit
G|-----------------------------------------------------------------|
D|-----------------------------------------------------------------|
A|-----------------------------------------------------------------|
E|-0---------------0---------------0---------------0---------------|

G|-----------------------------------------------------------------|
D|-----------------------------------------------------------------|
A|------10--------------10--------------10--------------10---------|
E|-0--00--0--3-3-3-0--00--0--5-5-3-0--00--0--3-3-3-0--00--0--5-5-7-|

G|-----------------------------------------------------------------|
D|-----------------------------------------------------------------|
A|------10--------------10--------------10--------------10---------|
E|-0--00--0--3-3-3-0--00--0--5-5-3-0--00--0--3-3-3-0--00--0--------|


Chorus
G|-----------------------------------------------------------------|
D|-----7-----7-7-------5---------------9-----8-7-5-----2-----------|
A|-----------------------------------------------------------------|
E|-5-55--5-5-----4-3-33--3-3-5-5-6-7-77--7-7-------0-00--2---3-3-4-|

G|-----------------------------------------------------------------|
D|-----7-----7-7-------5---------------9-----8-7-5-----------------|
A|-----------------------------------------------------------------|
E|-5-55--5-5-----4-3-33--3-3-5-5-6-7-77--7-7-------~--0--2-2-333-4-|

G|-----------------------------------------------------------------|
D|-----7-----7-7-------5---------------9-----8-7-5-----2-----------|
A|-----------------------------------------------------------------|
E|-5-55--5-5-----4-3-33--3-3-5-5-6-7-77--7-7-------0-00--2---3-3-4-|

G|-----------------------------------------------------------------|
D|-----7-----7-7-------5---------------9-----8-7-5-----------------|
A|-----------------------------------------------------------------|
E|-5-55--5-5-----4-3-33--3-3-5-5-6-7-77--7-7-----------------------|


Outro
G|-----------------------------------------------------------------|
D|-----------------------------------------------------------------|
A|-----------------------------------------------------------------|
E|-0---------------0---------------0---------------0---------------|

            
            
Suggest correction
Creating personal tab
Creating personal tab
You can edit any tab online and save it as your Personal.

You can edit, replace or remove any tab part or add personal notes – all changes will be seen only by you.

Personal tabs can be accessed anytime from any device, even offline.
Learn more »
comments
print report bad tab
2 comments total.
0 reply
MadClownDisease 583 Apr 05, 2007 03:26 AM

Apart from the double beats and a couple of off notes in the chorus this is mostly right.

0 reply
J.J.Jolly 596 Oct 09, 2007 07:32 AM

ver 1 is better

guest
You may want to rate the tab now too:
select rating
Wanna post a correction for this tab? Suggest correction