Oops, an error
Loading. Please wait.

Supremacy bass

version 1
version 1

Whole song

Interactive

by Muse
24,479 views 6 this week
1 commentread comment
1 2 3 4 5
x 4
add to favorites
×
Save as Personal and add changes to this tab that will be seen only by you. Learn more ›
×
You can save this tab as Personal to edit and correct it or add notes. All changes will be seen only by you. Learn more »
launch autoscroll
font size
0
reset
guitar tuner
backing track
0:00
0:00
edit
Autoscroll
slow
fast
+/-
esc
set tempo
stop
Author
Difficulty
Title: Supremacy
Artist: Muse
Album: The 2nd Law
Words: Mathew Bellamy
Music: Mathew Bellamy
Copyright: He-3 and Warner
Tabber: Jack Rayment
Tempo = 160
Electric Bass - Chris

Legend
L - tied note
x - dead note
h - hammer on/pull off
b - bend
s - slide
~ - vibrato
g - ghost note
> - accentuated note
t - trill
M - palm mute
. - staccato
P - popping (bass)
S - slapping (bass)
+ - tapping
W - wide vibrato
< - fade in
w - whammy bar
= - tremolo picking
v - brush up
^ - brush down
V - pick stroke up
n - pick stroke down


G |----------------------------------------|
D |----------------------------------------|
A |----------------------------------------|
E |--------------------5--5--5--5----------|


----------------------------------------|
----------------------------------------|
--------------------2--2--2--2----------|
----------------------------------------|


----------------------------------------|
----------------------------------------|
--------------------3--3--3--3----------|
----------------------------------------|


----------------------------------------|----|----|----|----|
----------------------------------------|----|----|----|----|
--------------------5--5--5--5----------|----|----|----|----|
----------------------------------------|----|----|----|----|


----------------------------------------------------|
----------------------------------------------------|
--0--------3--------0--------7--------0--------8L---|
----------------------------------------------------|


----------------------------------------------------|
----------------------------------------------------|
--8-----0--------7--------0--------0--10-11-12------|
----------------------------------------------------|


----------------------------------------------------|
----------------------------------------------------|
--0--------3--------0--------7--------0--------8L---|
----------------------------------------------------|


----------------------------------------------------|
--------------------------------5--6--7-------------|
--8-----0--------7--------0--------------3----------|
----------------------------------------------------|


----------------------------------------------------|
----------------------------------------------------|
--0--------3--------0--------7--------0--------8L---|
----------------------------------------------------|


----------------------------------------------------|
----------------------------------------------------|
--8-----0--------7--------0--------0--10-11-12------|
----------------------------------------------------|


----------------------------------------------------|
----------------------------------------------------|
--0-----0--0--0--0--0-----2--2--2--2--0-----3--3----|
----------------------------------------------------|


----------------------------------------------------|
----------------------------------------------------|
--3--3--0-----5--5--5--5--0-----6--6--6--6--6-------|
----------------------------------------------------|


----------------------------|-------|----------------------------|-------|
----------------------------|-------|----------------------------|-------|
--0L----------------0-------|--0----|--0L----------------0-------|--0----|
-----------------------0----|-------|-----------------------0----|-------|


----------------------------|-------|----------------------------|-------|
----------------------------|-------|----------------------------|-------|
--2L----------------2-------|--2----|--5L----------------5-------|--5----|
-----------------------0----|-------|-----------------------5----|-------|


----------------------------|-------|----------------------------|-------|
----------------------------|-------|----------------------------|-------|
--0L----------------0-------|--12---|--0L----------------0-------|--0----|
-----------------------0----|-------|-----------------------0----|-------|


-------|-------|----------------------------|-------|
-------|-------|----------------------------|-------|
--2----|--2----|--5L----------------5-------|--5----|
-------|-------|-----------------------5----|-------|


----------------------------|-------|----------------------------|
----------------------------|-------|----------------------------|
--0L----------------0-------|--12---|----------------------------|
-----------------------0----|-------|--1--------------------1----|


----------------------------|----------------------------|
----------------------------|----------------------------|
----------------------------|--0--------------------0----|
--3--------------------3----|----------------------------|


----------------------------|----------------------------|
----------------------------|----------------------------|
----------------------------|----------------------------|
--0--------------------0----|--1--------------------1----|


----------------------------|-------|----|----|----|
----------------------------|-------|----|----|----|
----------------------------|-------|----|----|----|
--1--------------------1----|--0----|----|----|----|


----------------------------------------------------|
----------------------------------------------------|
--0--------3--------0--------7--------0--------8L---|
----------------------------------------------------|


----------------------------------------------------|
--------------------------------5--6--7-------------|
--8-----0--------7--------0--------------3----------|
----------------------------------------------------|


----------------------------------------------------|
----------------------------------------------------|
--0--------3--------0--------7--------0--------8L---|
----------------------------------------------------|


----------------------------------------------------|
----------------------------------------------------|
--8-----0--------7--------0--------0--10-11-12------|
----------------------------------------------------|


----------------------------------------------------|
----------------------------------------------------|
--0-----0--0--0--0--0-----2--2--2--2--0-----3--3----|
----------------------------------------------------|


----------------------------------------------------|
----------------------------------------------------|
--3--3--0-----5--5--5--5--0-----6--6--6--6--6-------|
----------------------------------------------------|


----------------------------|-------|----------------------------|-------|
----------------------------|-------|----------------------------|-------|
--0L----------------0-------|--0----|--0L----------------0-------|--0----|
-----------------------0----|-------|-----------------------0----|-------|


----------------------------|-------|----------------------------|-------|
----------------------------|-------|----------------------------|-------|
--2L----------------2-------|--2----|--5L----------------5-------|--5----|
-----------------------0----|-------|-----------------------5----|-------|


----------------------------|-------|----------------------------|-------|
----------------------------|-------|----------------------------|-------|
--0L----------------0-------|--12---|--0L----------------0-------|--0----|
-----------------------0----|-------|-----------------------0----|-------|


-------|-------|----------------------------|-------|
-------|-------|----------------------------|-------|
--2----|--2----|--5L----------------5-------|--5----|
-------|-------|-----------------------5----|-------|


----------------------------|-------|----------------------------|
----------------------------|-------|----------------------------|
--0L----------------0-------|--12---|----------------------------|
-----------------------0----|-------|--1--------------------1----|


----------------------------|----------------------------|
----------------------------|----------------------------|
----------------------------|--0--------------------0----|
--3--------------------3----|----------------------------|


----------------------------|----------------------------|
----------------------------|----------------------------|
----------------------------|----------------------------|
--0--------------------0----|--1--------------------1----|


----------------------------|----------------------------|----|
----------------------------|----------------------------|----|
----------------------------|----------------------------|----|
--1--------------------1----|--0L----------------0L-0----|----|


----------------------------------------------------|
----------------------------------------------------|
----------------------------------------------------|
--------------------5>-5>-5>-5>-5>------------------|


----------------------------------------------------|
----------------------------------------------------|
----------------------------------------------------|
--------7>-7>-7>-7L-7>----------------------8>-8>---|


----------------------------------------------------|
----------------------------------------------------|
--------------------------------5>-5>-5>-5L-5>------|
--8>-8L-8>------------------------------------------|


-----------5-----------------------------------5----------------------------|
--5--6--7--------------------5--------5--6--7--------------------5----------|
--------------------5--6--7-----------------------------5--6--7-------------|
----------------------------------------------------------------------------|


-----------5-----------------------------------5----------------------------|
--5--6--7--------------------5--------5--6--7--------------------5----------|
--------------------5--6--7-----------------------------5--6--7-------------|
----------------------------------------------------------------------------|


-----------5-----------------------------------5----|
--5--6--7--------------------5--------5--6--7-------|
--------------------5--6--7-------------------------|
----------------------------------------------------|


----------------------------------------------------|
-----10----10----10----10----10----10----10----10---|
--12----12----12----12----12----12----12----12------|
----------------------------------------------------|


----------------------------------------------------|
-----10----10----10----10----10----10----10----10---|
--12----12----12----12----12----12----12----12------|
----------------------------------------------------|


----------------------------------------------------|
-----10----10----10----10----10----10----10----10---|
--12----12----12----12----12----12----12----12------|
----------------------------------------------------|


----------------------------------------------------|
-----10----10----10----10----10----10----10----10---|
--12----12----12----12----12----12----12----12------|
----------------------------------------------------|


----------------------------------------------------|
----------------------------------------------------|
--0--------3--------0--------7--------0--------8L---|
----------------------------------------------------|


----------------------------------------------------|
----------------------------------------------------|
--8-----0--------7--------0--------0--10-11-12------|
----------------------------------------------------|


----------------------------------------------------|
----------------------------------------------------|
--0--------3--------0--------7--------0--------8L---|
----------------------------------------------------|


----------------------------------------------------|
--------------------------------5--6--7-------------|
--8-----0--------7--------0--------------3----------|
----------------------------------------------------|


----------------------------------------------------|
----------------------------------------------------|
--0-----0--0--0--0--0-----2--2--2--2--0-----3--3----|
----------------------------------------------------|


----------------------------------------------------|----|----|----||
----------------------------------------------------|----|----|----||
--3--3--0-----5--5--5--5--0-----6--6--6--6--6-------|----|----|----||
----------------------------------------------------|----|----|----||

            
            
Suggest correction
Creating personal tab
Creating personal tab
You can edit any tab online and save it as your Personal.

You can edit, replace or remove any tab part or add personal notes – all changes will be seen only by you.

Personal tabs can be accessed anytime from any device, even offline.
Learn more »
comments
print report bad tab
1 comment total.
0 reply
Tom1998 223 Nov 10, 2012 03:43 AM

seriously confusing and there seem to be easier ways to play it, other than that pretty gd

guest
You may want to rate the tab now too:
select rating
Wanna post a correction for this tab? Suggest correction