Oops, an error
Loading. Please wait.

Supremacy Tab

version 1
version 1

Whole song

Interactive

by Muse
132,754 views 111 this week
7 commentsread comments
1 2 3 4 5
accurate
x 10
add to favorites
launch autoscroll
font size
0
reset
how to read this tab
guitar tuner
Autoscroll
slow
fast
+/-
esc
set tempo
stop
Help us to improve Ultimate-Guitar.com Take our survey!
×
Author
Difficulty
Tuning
intermediate
A E A D F# B
Title: Supremacy
Artist: Muse
Album: The 2nd Law
Words: Mathew Bellamy
Music: Mathew Bellamy
Copyright: He-3 and Warner
Tabber: Jack Rayment
Tempo = 160 bpm.
6 string version! Make sure to read the instructions and rate fairly cheers!


B |----------------------------------------|
F#|----------------------------------------|
D |--------------------2--2--2--2----------|
A |--x--x--x--x----------------------------|
E |--x--x--x--x--------0--0--0--0----------|
A |--x--x--x--x----------------------------|


B |----------------------------------------|
F#|----------------------------------------|
D |--------------------4--4--4--4----------|
A |--x--x--x--x----------------------------|
E |--x--x--x--x--------2--2--2--2----------|
A |--x--x--x--x----------------------------|


B |----------------------------------------|
F#|----------------------------------------|
D |--------------------5--5--5--5----------|
A |--x--x--x--x----------------------------|
E |--x--x--x--x--------3--3--3--3----------|
A |--x--x--x--x----------------------------|


B |----------------------------------------|
F#|----------------------------------------|
D |--------------------7--7--7--7----------|
A |--x--x--x--x----------------------------|
E |--x--x--x--x--------5--5--5--5----------|
A |--x--x--x--x----------------------------|


B |----------------------------------------------------|
F#|----------------------------------------------------|
D |----------------------------------------------------|
A |----------------------------------------------------|
E |----------------------------------------------------|
A |--0--------3--------0--------7--------0--------8L---|


B |----------------------------------------------------|
F#|----------------------------------------------------|
D |----------------------------------------------------|
A |----------------------------------------------------|
E |----------------------------------------------------|
A |--8-----0--------7--------0--------0--10-11-12------|


B |----------------------------------------------------|
F#|----------------------------------------------------|
D |----------------------------------------------------|
A |----------------------------------------------------|
E |----------------------------------------------------|
A |--0--------3--------0--------7--------0--------8L---|


B |----------------------------------------------------|
F#|----------------------------------------------------|
D |----------------------------------------------------|
A |----------------------------------------------------|
E |----------------------------------------------------|
A |--8-----0--------7--------0-----10-11-12-15---------|


B |----------------------------------------------------|
F#|----------------------------------------------------|
D |----------------------------------------------------|
A |----------------------------------------------------|
E |----------------------------------------------------|
A |--0--------3--------0--------7--------0--------8L---|


B |----------------------------------------------------|
F#|----------------------------------------------------|
D |----------------------------------------------------|
A |----------------------------------------------------|
E |----------------------------------------------------|
A |--8-----0--------7--------0--------0--10-11-12------|


B |----------------------------------------------------|
F#|----------------------------------------------------|
D |----------------------------------------------------|
A |----------------------------------------------------|
E |----------------------------------------------------|
A |--0--------3--------0--------7--------0--------8L---|


B |----------------------------------------------------|
F#|----------------------------------------------------|
D |----------------------------------------------------|
A |----------------------------------------------------|
E |----------------------------------------------------|
A |--8-----0--------7--------0-----10-11-12-15---------|


B |----------------------------------------------------|
F#|----------------------------------------------------|
D |----------------------------------------------------|
A |----------------------------------------------------|
E |----------------------------------------------------|
A |--0--------3--------0--------7--------0--------8L---|


B |----------------------------------------------------|
F#|----------------------------------------------------|
D |----------------------------------------------------|
A |----------------------------------------------------|
E |----------------------------------------------------|
A |--8-----0--------7--------0--------0--10-11-12------|


B |----------------------------------------------------|
F#|----------------------------------------------------|
D |----------------------------------------------------|
A |----------------------------------------------------|
E |--------0--0--0--0--------2--2--2--2--------3--3----|
A |--0-----------------0-----------------0-------------|


B |----------------------------------------------------|----|----|----|----|----|
F#|----------------------------------------------------|----|----|----|----|----|
D |----------------------------------------------------|----|----|----|----|----|
A |----------------------------------------------------|----|----|----|----|----|
E |--3--3--------5--5--5--5--------6--6--6--6--6--6----|----|----|----|----|----|
A |--------0-----------------0-------------------------|----|----|----|----|----|


B |----|----|----|----|----|----|----|----|----|----|----|----|----|----|----|----|
F#|----|----|----|----|----|----|----|----|----|----|----|----|----|----|----|----|
D |----|----|----|----|----|----|----|----|----|----|----|----|----|----|----|----|
A |----|----|----|----|----|----|----|----|----|----|----|----|----|----|----|----|
E |----|----|----|----|----|----|----|----|----|----|----|----|----|----|----|----|
A |----|----|----|----|----|----|----|----|----|----|----|----|----|----|----|----|


B |----|----|----|----|----|----------------------------------------------------|
F#|----|----|----|----|----|----------------------------------------------------|
D |----|----|----|----|----|----------------------------------------------------|
A |----|----|----|----|----|----------------------------------------------------|
E |----|----|----|----|----|----------------------------------------------------|
A |----|----|----|----|----|--0--------3--------0--------7--------0--------8L---|


B |----------------------------------------------------|
F#|----------------------------------------------------|
D |----------------------------------------------------|
A |----------------------------------------------------|
E |----------------------------------------------------|
A |--8-----0--------7--------0--------0--10-11-12------|


B |----------------------------------------------------|
F#|----------------------------------------------------|
D |----------------------------------------------------|
A |----------------------------------------------------|
E |----------------------------------------------------|
A |--0--------3--------0--------7--------0--------8L---|


B |----------------------------------------------------|
F#|----------------------------------------------------|
D |----------------------------------------------------|
A |----------------------------------------------------|
E |----------------------------------------------------|
A |--8-----0--------7--------0-----10-11-12-15---------|


B |----------------------------------------------------|
F#|----------------------------------------------------|
D |----------------------------------------------------|
A |----------------------------------------------------|
E |----------------------------------------------------|
A |--0--------3--------0--------7--------0--------8L---|


B |----------------------------------------------------|
F#|----------------------------------------------------|
D |----------------------------------------------------|
A |----------------------------------------------------|
E |----------------------------------------------------|
A |--8-----0--------7--------0--------0--10-11-12------|


B |----------------------------------------------------|
F#|----------------------------------------------------|
D |----------------------------------------------------|
A |----------------------------------------------------|
E |--------0--0--0--0--------2--2--2--2--------3--3----|
A |--0-----------------0-----------------0-------------|


B |----------------------------------------------------|----|----|
F#|----------------------------------------------------|----|----|
D |----------------------------------------------------|----|----|
A |----------------------------------------------------|----|----|
E |--3--3--------5--5--5--5--------6--6--6--6--6--6----|----|----|
A |--------0-----------------0-------------------------|----|----|


B |----------------------------|
F#|----------------------------|
D |--9-------------------------|
A |-----------10-7-------------|
E |-----------------------7----|
A |----------------------------|


B |----------------------------------------------------------------------------|
F#|----------------------------------------------------------------------------|
D |-----------------------------9--------7-------------------------------------|
A |--7--------9--------10-------------------------10-------9h-10h9--7----------|
E |----------------------------------------------------------------------------|
A |----------------------------------------------------------------------------|


B |----------------------------|-------|----------------------------|
F#|----------------------------|-------|----------------------------|
D |----------------------------|-------|--7-------------------------|
A |--9--------6--2L------------|--2----|-----------7----------------|
E |----------------------------|-------|--------------8--------0----|
A |----------------------------|-------|----------------------------|


B |----------------------------------------------------------------------------|
F#|----------------------------------------------------------------------------|
D |-----------------------------9--------7-------------------------------------|
A |-----------------------------------------------10-------9h-10h9--7----------|
E |--5--------7--------8-------------------------------------------------------|
A |----------------------------------------------------------------------------|


B |-------|----------------|----------------------------|
F#|-------|----------------|----------------------------|
D |-------|----------------|--9-------------------------|
A |--10L--|--10------------|-----------10-7-------------|
E |-------|----------------|-----------------------7----|
A |-------|----------------|----------------------------|


B |----------------------------------------------------------------------------|
F#|----------------------------------------------------------------------------|
D |-----------------------------9--------7-------------------------------------|
A |--7--------9--------10-------------------------10-------9h-10h9--7----------|
E |----------------------------------------------------------------------------|
A |----------------------------------------------------------------------------|


B |----------------------------|-------|----------------------------|
F#|----------------------------|-------|----------------------------|
D |----------------------------|-------|--7-------------------------|
A |--9--------6--2L------------|--2----|-----------7----------------|
E |----------------------------|-------|--------------8--------0----|
A |----------------------------|-------|----------------------------|


B |----------------------------------------------------------------------------|
F#|----------------------------------------------------------------------------|
D |-----------------------------9--------7-------------------------------------|
A |-----------------------------------------------10-------9h-10h9--7----------|
E |--5--------7--------8-------------------------------------------------------|
A |----------------------------------------------------------------------------|


B |-------|----------------|-------|----------------|-------|-------|-------|
F#|-------|----------------|-------|----------------|-------|-------|-------|
D |-------|----------------|--10---|--12----10-9----|--9----|--9----|--10---|
A |--10L--|--10------------|-------|----------------|-------|-------|-------|
E |-------|----------------|-------|----------------|-------|-------|-------|
A |-------|----------------|-------|----------------|-------|-------|-------|


B |----------------|-------|-------|
F#|----------------|-------|-------|
D |--10----12-14---|--14---|--13---|
A |----------------|-------|-------|
E |----------------|-------|-------|
A |----------------|-------|-------|


B |----------------------------------------------------|
F#|----------------------------------------------------|
D |--------------------2--2--2--2----------------------|
A |--x--x--x--x--------------------------x--x--x--x----|
E |--x--x--x--x--------0--0--0--0--------x--x--x--x----|
A |--x--x--x--x--------------------------x--x--x--x----|


B |----------------------------------------------------|
F#|----------------------------------------------------|
D |--------4--4--4--4--------------------------5--5----|
A |--------------------------x--x--x--x----------------|
E |--------2--2--2--2--------x--x--x--x--------3--3----|
A |--------------------------x--x--x--x----------------|


B |----------------------------------------------------|
F#|----------------------------------------------------|
D |--5--5--------------------------7--7--7--7----------|
A |--------------x--x--x--x----------------------------|
E |--3--3--------x--x--x--x--------5--5--5--5----------|
A |--------------x--x--x--x----------------------------|


B |----------------------------------------------------------------------------|
F#|----------------------------------------------------------------------------|
D |--12-13-14-17----------------12-------12-13-14-17----------------12---------|
A |--------------------12-13-14----------------------------12-13-14------------|
E |----------------------------------------------------------------------------|
A |----------------------------------------------------------------------------|


B |----------------------------------------------------------------------------|
F#|----------------------------------------------------------------------------|
D |--12-13-14-13-12-13-14-13-14-17-------12-13-14-17----------------12---------|
A |--------------------------------------------------------12-13-14------------|
E |----------------------------------------------------------------------------|
A |----------------------------------------------------------------------------|


B |----------------------------------------------------|
F#|----------------------------------------------------|
D |--12-13-14-17----------------12-------12-13-14-17L--|
A |--------------------12-13-14------------------------|
E |----------------------------------------------------|
A |----------------------------------------------------|


B |----------------------------------------------------|
F#|----------------------------------------------------|
D |--17----12-13-14-17-------12-13-14-19-------12-13---|
A |----------------------------------------------------|
E |----------------------------------------------------|
A |----------------------------------------------------|


B |-----------------------12----------------15---------|
F#|----------------------------------------------------|
D |--14-20-------12-13-14----------12-13-14------------|
A |----------------------------------------------------|
E |----------------------------------------------------|
A |----------------------------------------------------|


B |----------------------------------------------------|
F#|----------------------------------------------------|
D |--14-17-14-17-14-17-14-17-14-17-14-17-14-17-14-17---|
A |----------------------------------------------------|
E |----------------------------------------------------|
A |----------------------------------------------------|


B |----------------------------------------------------|
F#|----------------------------------------------------|
D |-----5-----5-----5-----5-----5-----5-----5-----5----|
A |--7-----7-----7-----7-----7-----7-----7-----7-------|
E |----------------------------------------------------|
A |----------------------------------------------------|


B |----------------------------------------------------|
F#|----------------------------------------------------|
D |----------------------------------------------------|
A |----------------------------------------------------|
E |----------------------------------------------------|
A |--0--------3b-------0--------7b-------0--------8L---|


B |----------------------------------------------------|
F#|----------------------------------------------------|
D |----------------------------------------------------|
A |----------------------------------------------------|
E |----------------------------------------------------|
A |--8-----0--------7--------0--------0--10-11-12------|


B |----------------------------------------------------|
F#|----------------------------------------------------|
D |----------------------------------------------------|
A |----------------------------------------------------|
E |----------------------------------------------------|
A |--0--------3--------0--------7--------0--------8L---|


B |----------------------------------------------------|
F#|----------------------------------------------------|
D |----------------------------------------------------|
A |----------------------------------------------------|
E |----------------------------------------------------|
A |--8-----0--------7--------0-----10-11-12-15---------|


B |----------------------------------------------------|
F#|----------------------------------------------------|
D |----------------------------------------------------|
A |----------------------------------------------------|
E |--------0--0--0--0--------2--2--2--2--------3--3----|
A |--0-----------------0-----------------0-------------|


B |----------------------------------------------------|----|----|----||
F#|----------------------------------------------------|----|----|----||
D |----------------------------------------------------|----|----|----||
A |----------------------------------------------------|----|----|----||
E |--3--3--------5--5--5--5--------6>-6>-6>-6>-6>-6>---|----|----|----||
A |--------0-----------------0-------------------------|----|----|----||



************************************

| L   tied note
| x   dead note
| h   hammer on/pull off
| b   bend
| s   slide
| ~   vibrato
| g   ghost note
| >   accentuated note
| t   trill
| M   palm mute
| .   staccato
| P   popping (bass)
| S   slapping (bass)
| +   tapping
| W   wide vibrato
| <   fade in
| w   whammy bar
| =   tremolo picking
| v   brush up
| ^   brush down
| V   pick stroke up
| n   pick stroke down

************************************
Suggest correction
What's this?
You can suggest a correction to this tab. Community and Mods will review your correction and vote to approve or reject it.
comments
print report bad tab
7 comments total. Showing first comments.
+2 reply
8bitcarnage 74 wrote on October 5 2012, 07:37 am

Nice man, also, the last chord is

e--------------0--|
B-----------1-----|
G---------1-------|
D------2----------|
A---0-------------|
A-----------------|

0 reply
EXFRAWEN 132 wrote on January 27 2013, 05:20 pm

Hi, correct me if I'm wrong, but...is it a necessity to tune down to A on the E string?...it's just that I feel a little uncomfortable playing like that..and...seeing the song doesn't use that string much, and I would like to think that Matt usually stays in standard tuning or sometimes drops D, but I've never seen a song of muse drop to A.
So I might be wrong , but, couldn't we just do:
(thanks to user 4useless on his bass tab :)
E|----------------------
B|-----------------------
G|--------------------------------|-------------------------------5-|
D|---------2-----3-----2------567-|-----------2-----3-----2----567--|
A|0--3--0-----0-----0-----0--0---0|(0)--3--0-----0-----0-----0------|
E|--------------------------------|---------------------------------|

+2 reply
EXFRAWEN 132 wrote on January 28 2013, 01:30 pm

By the way, I gotta say that watching the song live, Matt uses a 7 string guitar, so that makes more sense =P

guest
You may want to rate the tab now too:
select rating
Please do not post tabs as comments. Select "correction" instead!