Oops, an error
Loading. Please wait.

Survival Tab

version 1
version 1

Solo

Whole song

by Muse
13,018 views 24 this week
no commentswrite comment
1 2 3 4 5
accurate
x 6
add to favorites
launch autoscroll
font size
0
reset
how to read this tab
guitar tuner
Tab Pro tools
  • play this tab
  • loop segment
  • change instrument
  • show fretboard
  • metronome
×
Best way to learn
"Survival"
Autoscroll
slow
fast
+/-
esc
set tempo
stop
Contributor
This is my first tab, so it's not 100% correct, and there are parts where I'm not 
sure how is played, so you can listen to it and do whatever suits you. :)


  Repeat this part 2 times
e|------------------------------------------------------------|
B|------------------------------------------------------------|
G|------------------------------------------------------------|
D|-----------------------3--4----3---3v----3------------------|
A|---------------------5-----------5---------5-------------5--|
E|--6~~~--6(dive)----6-------------------------6--2----1h2----|
                                           
                                          Here after you repeat it, on the ending 
note you just kinda chromatically climb up to 11 on the B string.
e|------------------------------------------------------------|
B|--------6-7---6---6------6----------------------6-7--6---8--|
G|------7---------8----------7----------7v------7--------8----|
D|--6/8------------------------8-------8------8---------------|
A|-------------------------------9---9------------------------|
E|------------------------------------------------------------|
Once again, you repeat this part then on the last note you just chromatically 
scale your way up to 16 on B.
e|---------------------------------------------------------------------|
B|--9~----------------------------11-12v---11----11v--11---------------|
G|-----------------------------12-------------12--------12----------12-|
D|--------------------------13----------------------------13------13---|
A|----------------------------------------------------------14~-14-----|
E|--------14\0/11v~~-10-11---------------------------------------------|
                                                   Tremelo pick these notes
                                                            v
e|--------------------------------------------------------------------|
B|------11-12~---11--13-12-13-14-13-14-15-14-15-16v~~-17-18-19-21\----|
G|----12-----------13-------------------------------------------------|
D|--13----------------------------------------------------------------|
A|--------------------------------------------------------------------|
E|--------------------------------------------------------------------|

e|----------------------------------------------------------|
B|----------------------------------------------------------|
G|--------------------------------12----12-12----12-13v-----|
D|--13~---13-11-13-14v---14-13-14----14-------14------------|
A|----------------------------------------------------------|
E|----------------------------------------------------------|

e|---------------------------------------half bend----------|
B|-----------------10v---10----10-13-14-16-16b17r16--14-16\-|
G|--13~---13-11-13----------13------------------------------|
D|----------------------------------------------------------|
A|----------------------------------------------------------|
E|----------------------------------------------------------|
Tremolo pick all of the notes below
e|----------------------------------------------------------|
B|--16-----17-----18-----19----20----21v\-------------------|
G|-----x16----x16----x16----x8----x8------------------------|
D|--13-----14-----15-----16----17---------------------------|
A|----------------------------------------------------------|
E|----------------------------------------------------------|
This part I just randomly tremolo pick 13,16,17 on the e string.
A little delay also adds to the effect
e|---16~~~---13-16-17-13-17-16-17-13-16-13-17-16------------|
B|----------------------------------------------------------|
G|----------------------------------------------------------|
D|----------------------------------------------------------|
A|----------------------------------------------------------|
E|----------------------------------------------------------|
comments
print report bad tab
I want to post or [tab]
guest
You may want to rate the tab now too:
select rating
Please do not post tabs as comments. Select "correction" instead!