Oops, an error
Loading. Please wait.

Survival Bass Tab

version 2
version 2

Whole song

by Muse
16,946 views 42 this week
3 commentsread comments
1 2 3 4 5
excellent!
x 14
add to favorites
launch autoscroll
font size
0
reset
guitar tuner
Autoscroll
slow
fast
+/-
esc
set tempo
stop
Help us to improve Ultimate-Guitar.com Take our survey!
×
Author
Difficulty
Museluva 339
novice
Tabbed by Tristan Arostegui


Album: Olympics 2012
Length: 4:17
Tuning: Standard


Intro


NO BASS


Verse:0:34 Race, life's a race...
                                                     \
G |------------------------------------------------| |
D |------------------------------------------------| |
A |--------------------------------6------66------6| |
E |6------66------66------66------6----------------| |
                                                     |  x3
G |---------------------------8-9-10---------------| |
D |-------------------------------------------5-6-7| |
A |9------99------9----------6-7-8-9------99-------| |
E |----------------7------77-----------------3-4-5-| |
                          *(10, not 1 then 0)        /

Solo 1 : 1:27 Yeah, I'm gonna win!...
                     \
G |----------------| |
D |---8-------8----| |
A |----------------| | x11
E |6-6-6--66-6-6--6| |
                     /

                     \
G |---8-------8----| |
D |----------------| |
A |6-6-6--66-6-6--6| | x5
E |----------------| |
                     /

                     \
G |----------------| |
D |---6-------6----| |
A |----------------| | x2
E |4-4-4--44-4-4--4| |
                     /

Verse:  2:19 Race, it's a race...
                                                     \
G |------------------------------------------------| |
D |------------------------------------------------| |
A |--------------------------------4-444--44-444--4| |
E |4-444--44-444--44-444--44-444--4----------------| |
                                                     |  x2
G |---------------------------6-7-8----------------| |
D |-------------------------------------------3-4-5| |
A |7-777--77-777--7----------4-5-6-7-777--77-------| |
E |----------------5-555--55-----------------1-2-3-| |
                                                     /

Solo 2 : 2:54 Yes, I'm gonna win!...
                                     \
G |--------------------------------| |
D |--------------------------------| |
A |--------------------------------| | x10
E |4-444--44-444--44-444--44-112233| |
            *(Not 11, but 1 then 1)  /

Outro : 3:53 Fight, fight, fight...
                     \
G |----------------| |
D |----------------| |
A |----------------| | x4
E |--444-4---444-4-| |
                     /

End on (Let it ring): 4:05 Yes, I'm gonna win!
G |------------------|
D |------------------|
A |------------------|
E |4-----------------|
Suggest correction
What's this?
You can suggest a correction to this tab. Community and Mods will review your correction and vote to approve or reject it.
comments
print report bad tab
3 comments total.
0 reply
AccelerateDbass 15 wrote on October 11 2012, 03:20 pm

btw the tuning for this song is half step down

0 reply
tonello 2,121 wrote on May 26 2013, 04:27 pm

It's standard. I think that they wrote in in half step down, but I played it through my bass amp, and it was spot on.

0 reply
RadioheadFan123 10 wrote on October 16 2014, 05:41 pm

great song

guest
You may want to rate the tab now too:
select rating
Please do not post tabs as comments. Select "correction" instead!