Oops, an error
Loading. Please wait.

Survival Bass Tab

version 3
version 3

Whole song

by Muse
1,125 views 1 this week
no commentswrite comment
1 2 3 4 5
2 more votes to show rating
add to favorites
launch autoscroll
font size
0
reset
guitar tuner
Autoscroll
slow
fast
+/-
esc
set tempo
stop
Help us to improve Ultimate-Guitar.com Take our survey!
×
Author
Difficulty
Tuning
intermediate
C# G# C# F# A# D#
Tuning for this song is Dropped C#
I also have a bass cover of this on youtube if you want to use it as a basic guide.
Also not 100% sure what to call each part since it's not your typical song structure, 
but hopefully you get the basic idea.

Bass Cover

   https://www.youtube.com/watch?v=kRYJaxjdJRM


Intro

   No Bass

Verse 1

F#|-------------------------------------------------------------------------|
C#|-------------------------------------------------------------------------|
G#|-------------------------------------------------------------------------|
C#|-9---9-9-----9---9---9-9-----9---9---9-9-----9---9---9-9-----9-----------|

F#|-------------------------------------------------------------------------|
C#|-------------------------------------------------------------------------|
G#|-7---7-7-----7---7---7-7-----7---10---10-10-----10---10---10-10-----10---|
C#|-------------------------------------------------------------------------|

F#|-------------------------------------------------------------------------|
C#|-------------------------------------------------------------------------|
G#|--------------------------778899-10---10-10-----10---10------------------|
C#|-10---10-10-----10---10-----------------------------------557788---------|

   Play the three lines above three times


Break

F#|-------------------------------------------------------------------------|
C#|-----9---9-----------9---9-----------9---9-----------9---9---------------|
G#|-------------------------------------------------------------------------| x5
C#|-9-----9-----9---9-----9-----9---9-----9-----9---9-----9-----9-----------|

F#|-------------------------------------------------------------------------|
C#|-----9---9-----------9---9-----------------------------------------------|
G#|-------------------------------------------------------------------------|
C#|-9-----9-----9---9-----9-----9-------------------------------------------|

F#|-------------------------------------------------------------------------|
C#|-----2---2-----------2---2-----------2---2-----------2---2---------------|
G#|-------------------------------------------------------------------------| x2
C#|-2-----2-----2---2-----2-----2---2-----2-----2---2-----2-----2-----------|

F#|-------------------------------------------------------------------------|
C#|-----2---2-----------2---2-----------------------------------------------|
G#|-------------------------------------------------------------------------|
C#|-2-----2-----2---2-----2-----2-------------------------------------------|

F#|-------------------------------------------------------------------------|
C#|-----7---7-----------7---7-----------7---7-------------4---5---6---------|
G#|-0-----0-----0---0-----0-----0---0-----0-----0---0-----------------------|
C#|-----------------------------------------------------4---5---6-----------|

Verse 2

F#|-------------------------------------------------------------------------|
C#|-------------------------------------------------------------------------|
G#|-------------------------------------------------------------------------|
C#|-7---7-7-7---7---7---7-7-7---7---7---7-7-7---7---7---7-7-7---7-----------|

F#|-------------------------------------------------------------------------|
C#|-------------------------------------------------------------------------|
G#|-------------------------------------------------------------------------|
C#|-0---0-0-0---0---0---0-0-0---0---3---3-3-3---3---3---3-3-3---3-----------|

F#|-------------------------------------------------------------------------|
C#|-------------------------------------------------------------------------|
G#|---------------------556677-8---8-8-8---8---8----------------------------|
C#|-8---8-8-8---8---8------------------------------335566-------------------|

   Play the lines above twice

Guitar Solo

F#|-------------------------------------------------------------------------|
C#|-----7---7-----------7---7-----------7---7-------------4---5---6---------|
G#|-0-----0-----0---0-----0-----0---0-----0-----0---0-----------------------| x10
C#|-----------------------------------------------------4---5---6-----------|

Outro

F#|-------------------------------------------------------------------------|
C#|-------------------------------------------------------------------------|
G#|-15\--0-0-0---0---15\--0-0-0---0---15\--0-0-0---0---15\--0-0-0---0-------|
C#|-------------------------------------------------------------------------|

F#|-------------------------------------------------------------------------|
C#|-------------------------------------------------------------------------|
G#|------0-0-0---0--------0-0-0---0--------0-0-0---0--------0-0-0-----0-----|
C#|-------------------------------------------------------------------------|

F#|-------------------------------------------------------------------------|
C#|-------------------------------------------------------------------------|
G#|-0-----------------------------------------------------------------------|
C#|-------------------------------------------------------------------------|


| /  slide up
| \  slide down
| h  hammer-on
| p  pull-off
| ~  vibrato
| +  harmonic
| x  Mute note
Suggest correction
Give kudos to tab author, rate the tab!
1 2 3 4 5
comments
print report bad tab
guest
You may want to rate the tab now too:
select rating
Wanna post a correction for this tab? Suggest correction