Oops, an error
Loading. Please wait.

Survival Bass Tab

version 4
version 4

Whole song

by Muse
1,434 views 9 this week
1 commentread comment
1 2 3 4 5
excellent!
x 2
add to favorites
launch autoscroll
font size
0
reset
guitar tuner
Tab Pro tools
  • play this tab
  • loop segment
  • change instrument
  • show fretboard
  • metronome
Autoscroll
slow
fast
+/-
esc
set tempo
stop
Contributor
Difficulty
Tuning
novice
D# G# C# F# A# D#
Band: Muse
Song: Survival
Album: The 2nd Law (2012)
Bassist: Chris Wolstenholme
Tuning: Standard


[0:16] There's no bass but You can play this as Intro:

Gb|-------------------------------------------------------------------------|
Db|-------------------------------------------------------------------------|
Ab|--------------------------7----7----10---10------------------------------|
Eb|4455667----7----7----7-------------------------8----8-0011223----3-445566|

Verse: [0:35] Play this three times.

Gb|--------------------|------------------------|--------------------------|     
Db|--------------------|------------------------|--------------------------|          
Ab|--------------------|7--7-7--7-10--10-10--10-|--------------------------|
Eb|7--7-7--7-7--7-7--7-|------------------------|8--8-8-0011223--3-3-445566|
                                                                     
Yes, I'm gonna win: [1:27]

Gb|--------------------------|     |----------------------|
Db|---9---9--------9---9-----|     |---9---9--------------|
Ab|--------------------------|     |----------------445566|
Eb|7----7----7--7----7----7--| x10 |7----7----7--7--------|

Gb|--------------------------|     |----------------------|
Db|---2---2--------2---2-----|     |---2---2--------------|
Ab|--------------------------|     |----------------------|
Eb|0----0----0--0----0----0--| x4  |0----0----0--0--223344|

Gb|--------------------------|     |----------------------|
Db|---7---7--------7---7-----|     |---7---7--------------|
Ab|--------------------------|     |----------------------|
Eb|5----5----5--5----5----5--|     |5----5----5--5--223344|

Race...it's a race: [2:20]

Gb|--------------------------|     |---7---7--------7---7-----|   |
Db|---7---7--------7---7-----|     |--------------------------|   |
Ab|--------------------------|     |5----5----5--5----5----5--|   |
Eb|5----5----5--5----5----5--| x2  |--------------------------|   |
                                                                  |
Gb|--10---10------10---10----|     |----------------------|       |
Db|--------------------------|     |---8---8--------------|       |
Ab|8----8----8--8----8----8--|     |----------------556677|       | x3
Eb|--------------------------|     |6----6----6--6--------|       |
                                                                  |
Gb|--10---10-------------|                                        |
Db|----------------------|                                        |
Ab|8----8----8--8--------|                                        |
Eb|----------------223344|                                        |

Yes, I'm gonna win: [2:55]

Gb|--------------------------|----------------------|
Db|---7---7--------7---7-----|---7---7--------------|
Ab|--------------------------|----------------------|
Eb|5----5----5--5----5----5--|5----5----5--5--223344| x10

Ending: [3:54]

Gb|----------------------------------------------------|
Db|7------------7------------7------------7------------|
Ab|----------------------------------------------------|
Eb|---5-5-5--5-----5-5-5--5-----5-5-5--5-----5-5-5--5--|

Gb|----------------------------------------------------|
Db|----------------------------------------------------|
Ab|----------------------------------------------------|
Eb|---5-5-5--5-----5-5-5--5-----5-5-5--5-----5-5-5--5--|

Last note - 5th fret on Eb string.

/  slide up
\  slide down
h  hammer-on
p  pull-off
~  let ring
comments
We did not receive enough feedback on this tab! Please rate:
print report bad tab
1 2 3 4 5
1 comment total.
0 reply
TFKrawk$ wrote on May 2 2013, 12:12 am

Sick tab! The note count is a little off, but it gave me a great understanding of the track and made this song go from "too confusing" to "wait I can actually play this" pretty quickly. Thanks man!

I want to post or [tab]
guest
You may want to rate the tab now too:
select rating
Please do not post tabs as comments. Select "correction" instead!