Oops, an error
Loading. Please wait.

Take A Bow Bass Tab

version 1
version 1

Live

Whole song

Interactive

by Muse
1,832 views 9 this week
no commentswrite comment
1 2 3 4 5
2 more votes to show rating
add to favorites
launch autoscroll
font size
0
reset
guitar tuner
Autoscroll
slow
fast
+/-
esc
set tempo
stop
Help us to improve Ultimate-Guitar.com Take our survey!
×
Author
Difficulty
intermediate
Band: Muse
Song: Take A Bow (Live from Reading festival 2006)
Album: Black Holes And Revelations (2006)
Bassist: Chris Wolstenholme
Tuning: Standard


Note! If You want to see my tab for album version then check out
"Black Holes and Revelation Album (bass ver2)" tab.


No bass till 1:40 but here's some extra notes for intro.

G|--------|    |--------|    |--------|    |--------|    |--------|
D|--------|    |5~------|    |--------|    |--------|    |--------|
A|5~------|    |----6~--|    |3~------|    |3~------|    |3~------|
E|----6~--| x4 |--------| x4 |----4~--| x3 |--------|    |----4~--| x4

G|--------|    |--------|    |--------|    |--------|    |--------|
D|3~------|    |--------|    |--------|    |----9~--|    |--------|
A|----4~--|    |1~------|    |6~------|    |6~------|    |6~------|
E|--------| x4 |----2~--| x4 |----7~--| x4 |--------| x2 |--------|

Verse (1:40):
Remember that songs time signature is 3/4 and Chris plays this song with
22 fret bass.

G|--8---8---8-|------------|------------|------------|
D|------------|--9---9---9-|--8---8---8-|--8---8---8-|
A|6---6---6---|------------|------------|------------|
E|------------|7---7---7---|6---6---6---|6---6---6---|

G|--8---8---8-|------------|------------|------------|
D|------------|--9---9---9-|--6---6---6-|--6---6---6-|
A|6---6---6---|------------|------------|------------|
E|------------|7---7---7---|4---4---4---|4---4---4---|

G|------------|------------|------------|------------|
D|--8---8---8-|--4---4---4-|--3---3---3-|--3---3---3-|
A|------------|------------|------------|------------|
E|6---6---6---|2---2---2---|1---1---1---|1---1---1---|

G|------------|------------|--8---8---8-|--8---8---8-|
D|--8---8---8-|--4---4---4-|------------|------------|
A|------------|------------|6---6---6---|6---6---6---|
E|6---6---6---|2---2---2---|------------|------------|


G|------------|------------|------------|-10--10--10-|
D|--3---3---3-|--7---7---7-|-10--10--10-|------------|
A|------------|------------|------------|8---8---8---|
E|1---1---1---|5---5---5---|8---8---8---|------------|

G|--14--14--14|--17--17--17|--22--22--22|--22--22----|  
D|------------|------------|------------|------------|
A|12--12--12--|15--15--15--|20--20--20--|20--20--20\-|
E|------------|------------|------------|------------|
                                ^^^
If You haven't 22 fret     |------------|
bass You can play that bar |--15--15--15|
like this (octave lower):  |------------|
                           |13--13--13--|


G|-10--10--10-|------------|    |-10--10--10-|
D|------------|-11--11--11-|    |------------|
A|8---8---8---|------------|    |8---8---8---|
E|------------|9---9---9---| x3 |------------| x2

G|-10--10--10-|------------|
D|------------|-11--11--11-|   
A|8---8---8---|------------|   
E|------------|9---9---9---| x4


G|--------|    |--------|    |--------|    |--------|
D|--------|    |--------|    |--------|    |--------|
A|1~------|    |6~------|    |--------|    |--------|
E|----2~--| x4 |----7~--| x4 |4~--0~--| x3 |4~------|

Listen closely to the song to get those notes in time.

G|--------------------------|    |---------------------------|
D|--------------------------|    |---------------------------|
A|-----11-11\---------------|    |-----11-11\----------------|
E|4--/----------0/--12-12\--| x3 |4--/----------0-/12-12-12\-|

G|--------------------------|    |---------------------------|
D|------------------19-19\--|    |-----------------19-19-19\-|
A|4--/16-16-16\-12/---------|    |4--/16-16-16\-12/----------|
E|--------------------------| x3 |---------------------------|

G|------------------19-19\--|    |-----------------19-19-19\-|
D|4--/16-16-16\-12/---------|    |4--/16-16-16\-12/----------|
A|--------------------------|    |---------------------------|
E|--------------------------| x3 |---------------------------|

G|--------------------------|      
D|--------------------------|          
A|2--/14-14-14\-10\-10-10\--|     
E|-----------------7/-------| x4               


G|---------------------------|---------------------------|
D|---------------------------|---------------------------|
A|2-2-2/9-9-9-10-10-10-7-7-7\|2-2-2/9-9-9-10-10-10-7-7-7/|
E|---------------------------|---------------------------|

G|------------------------------|------------------------------|
D|------------------------------|------------------------------|
A|14-14-14\9-9-9-10-10-10-7-7-7/|14-14-14\9-9-9-10-10-10-7-7-7\|
E|------------------------------|------------------------------|

Ending:

G|--------------------|    |--------------------|--------------------|
D|--------------------|    |--------------------|--------------------|
A|2-2-----2-----2-2---|    |2-2-----2-----------|3~------------------|
E|----2-2---2-2-----2-| x2 |----2-2---2-2-2-----|--------------------|

G|--------------------|
D|--------------------|
A|2-2-2-2-------------|
E|--------------------|

That's it! Enjoy and please rate.

/  slide up
\  slide down
h  hammer-on
p  pull-off
~  let ring
Suggest correction
Give kudos to tab author, rate the tab!
1 2 3 4 5
comments
print report bad tab
guest
You may want to rate the tab now too:
select rating
Wanna post a correction for this tab? Suggest correction