Oops, an error
Loading. Please wait.

Take A Bow Tab

version 1
version 1

Whole song

Interactive

by Muse
22,534 views 18 this week
2 commentsread comments
1 2 3 4 5
x 4
add to favorites
launch autoscroll
font size
0
reset
how to read this tab
guitar tuner
Autoscroll
slow
fast
+/-
esc
set tempo
stop
Help us to improve Ultimate-Guitar.com Take our survey!
×
Author
Difficulty
novice
Muse - Take a Bow

No guitar until 2.23


  Muted the first two times, gets gradually louder during 3rd & 4th.
e|----------------------------------------------------------------------------------|
B|----------------------------------------------------------------------------------|
G|-10-10-10-10-10-10-------6-6-6-6-6-6----------------------------------------------|
D|-10-10-10-10-10-10-------6-6-6-6-6-6----------------------------------------------|
A|-8--8--8--8--8--8--------4-4-4-4-4-4----------------------------------------------|
E|----------------------------------------------------------------------------------| x4

e|----------------------------------------------------------------------------------|
B|----------------------------------------------------------------------------------|
G|--------------------------------------8---4---8---4-------------------------------|
D|-8---4---8---4------------------------8---4---8---4----5-3-5-5b-3-5-5b------------|
A|-8---4---8---4----8-6-8-8b-6-8--8b----6---2---6---2-------------------------------|
E|-6---2---6---2--------------------------------------------------------------------|

                                      [I slide from 2 here, but it doesn't really matter]
e|----------------------------------------------------------------------------------|
B|----------------------------------------------------------------------------------|
G|------------------5-3-5-5b-3-5-5b-------------------------------8-6-8-8b-6-8-8b---|
D|-4---2---4---2---------------------------------4---2---4---2----------------------|
A|-4---2---4---2---------------------------------4---2---4---2----------------------|
E|-2---0---2---0--------------------/////////17--2---0---2---0----------------------|

e|----------------------------------------------------------------------------------|
B|----------------------------------------------------------11-9-11-11b-9-11-11b----|
G|-6-------6-------10-8-10-10b-8-10-10b---------------------------------------------|
D|-6---7---6---7--------------------------4---12---4---12---------------------------|
A|-4---7---4---7--------------------------4---12---4---12---------------------------|
E|-----5-------5--------------------------2---10---2---10---------------------------|


(Burn, you will burn...)
e|-----------------11-9-11-11b--9-11-9-11-11b----14-12-14-14b-12-14-12-14-14b-------|
B|----------------------------------------------------------------------------------|
G|----------------------------------------------------------------------------------|
D|-9---5---9---5--------------------------------------------------------------------|
A|-9---5---9---5--------------------------------------------------------------------|
E|-7---3---7---3--------------------------------------------------------------------|


[The next bit is an orgy of noise, and I don't have a clue what he plays. The final chord is a C]
e|--3-------------------------------------------------------------------------------|
B|--5-------------------------------------------------------------------------------|
G|--5-------------------------------------------------------------------------------|
D|--5-------------------------------------------------------------------------------|
A|--3-------------------------------------------------------------------------------|
E|----------------------------------------------------------------------------------|
Suggest correction
comments
print report bad tab
2 comments total.
0 reply
Placebo_BM 30 Nov 28, 2006 02:28 PM

doesn't the chord 244 really need to be 466? sounds to low going from 244 to 022

----------------------------------------------------------------------------------|
B|----------------------------------------------------------------------------------|
G|------------------5-3-5-5b-3-5-5b-------------------------------8-6-8-8b-6-8-8b---|
D|-4---2---4---2---------------------------------4---2---4---2----------------------|
A|-4---2---4---2---------------------------------4---2---4---2----------------------|
E|-2---0---2---0--------------------/////////17--2---0---2---0----------------------|

0 reply
James_CFC 114 Apr 19, 2007 12:20 PM

Yeah you're right, typo...

guest
You may want to rate the tab now too:
select rating
Wanna post a correction for this tab? Suggest correction