Oops, an error
Loading. Please wait.

The 2Nd Law Isolated System Tab

version 1
version 1

Whole song

Interactive

by Muse
16,893 views 24 this week
4 commentsread comments
1 2 3 4 5
x 13
add to favorites
launch autoscroll
font size
0
reset
how to read this tab
guitar tuner
Autoscroll
slow
fast
+/-
esc
set tempo
stop
Help us to improve Ultimate-Guitar.com Take our survey!
×
Author
Difficulty
intermediate
This is the first tab I ever submitted and no one posted one up so I figured that I would.
-MUSE1795
MUSE is the greatest band in the world and this song is so simple, yet amazing. 
It's really easy to play the parts on guitar.

Standard Tuning

Intro: This is played throughout the whole song
e|--15-------10--------------------------------------------------|
B|---------------------------------------------------------------|
G|12-12-12-12-12-12-12-12-12-------------------------------------|
D|---------------------------------------------------------------|
A|---------------------------------------------------------------|
E|---------------------------------------------------------------|

0:15 this little piano part is played throughout a lot of the song as well
e|--15-13-11---------11------------------------------------------|
B|-----------15--13-----15--13-----------------------------------|
G|12-12-12-12--12--12-12--12--12---------------------------------|
D|---------------------------------------------------------------|
A|---------------------------------------------------------------|
E|---------------------------------------------------------------|

0:29 the other part in the background
e|---------------------------------------------------------------|Each one is
B|---------------------------------------------------------------|played 8x
G|-7-7-7-7--7--7--7--7--7-7-7-7----------------------------------| except for
D|8-8-8-8--10-10-10-10-5-5-5-5-----------------------------------|the 5,7 is
A|---------------------------------------------------------------|played 16x
E|---------------------------------------------------------------|

0:58 the bass kicks in
e|---------------------------------------------------------------|
B|---------------------------------------------------------------|
G|---------------------------------------------------------------|
D|---------------------------------------------------------------|
A|---------------------------------------------------------------|
E|6(x16)---8(x16)---3(x32)---------------------------------------|

1:26 the violin part (repeat as necessary)
e|15--13--11--8--11--10--11--10--8--6--8--5--3-------------------|
B|---------------------------------------------------------------|
G|---------------------------------------------------------------|
D|---------------------------------------------------------------|
A|---------------------------------------------------------------|
E|---------------------------------------------------------------|

2:04 it's similar to the other part earlier in the song but with a slight change (play as necessary)
e|---------------------------------------------------------------|Each one is
B|---------------------------------------------------------------|played 8x
G|-7-7-7-7--7--7--7--7---8--8--8--8--8-8-8-8---------------------| 
D|8-8-8-8--10-10-10-10-10-10-10-10--8-8-8-8----------------------|
A|---------------------------------------------------------------|
E|---------------------------------------------------------------|

That's pretty much it. Listen to the song to figure out the times and how long you 
should play everything.
Any questions, comments, email me @ muse1995@yahoo.com
Enjoy!
Suggest correction
comments
print report bad tab
4 comments total. Showing first comments.
+3 reply
hak_hap 213 Feb 06, 2013 12:56 PM

brilliant, thank god its playable on guitar ^^

+2 reply
tigers1535 273 Jun 25, 2013 11:55 PM

This is great! Thanks! :D

0 reply
GuitarDomen 140 Aug 06, 2013 04:03 AM

Great tab, thank you!

guest
You may want to rate the tab now too:
select rating
Wanna post a correction for this tab? Suggest correction