Oops, an error
Loading. Please wait.

The 2Nd Law Unsustainable Bass Tab

version 2
version 2

Whole song

Interactive

by Muse
1,452 views 3 this week
no commentswrite comment
1 2 3 4 5
2 more votes to show rating
add to favorites
launch autoscroll
font size
0
reset
guitar tuner
Autoscroll
slow
fast
+/-
esc
set tempo
stop
Help us to improve Ultimate-Guitar.com Take our survey!
×
Author
Band- MUSE
Song- Unsustainable                                  /= Slide Up
Album- The 2nd Law                                   \= Slide Down
Bassist- Chris Wolstenholme                          ^= Bend String Upwards
BassTab by Filippo199o

Tuning- (EADG)

No bass till 1:28
At 1:28 the bass kicks in- 


Drop:

G|--------------------------------|--------------------------------|
D|--------------------------------|--------------------------------|
A|----------------12\-------------|--------------------------------|
E|--------------------------------|----5------5-------5-5-5--------|

G|--------------------------------|--------------------------------|
D|--------------------------------|--------------------------------|
A|--------------------------------|------12-12-12^-13-13-13^-13^13^|
E|-----------------5/-------------|--------------------------------|

G|--------------------------------|--------------------------------|
D|--------------------------------|--------------------------------|
A|----------------12\-------------|--------------------------------|
E|--------------------------------|--5--------------5--------------|

G|--------------------------------|--------------------------------|
D|--------------------------------|--------------------------------|
A|--------------------------------|--------------------------------|
E|-----------------5/-------------|----0--0--0--0--0--0--0--0------|

G|--------------------------------|--------------------------------|
D|--------------------------------|--------------------------------|
A|----------------12\-------------|--------------------------------|
E|--------------------------------|----5------5-------5-5-5--------

G|--------------------------------|--------------------------------|
D|--------------------------------|--------------------------------|
A|--------------------------------|------12-12-12^-13-13-13^-13^13^|
E|-----------------5/-------------|--------------------------------|

G|--------------------------------|--------------------------------|
D|--------------------------------|--------------------------------|
A|----------------12\-------------|--------------------------------|
E|--------------------------------|--5--------------5--------------|

G|--------------------------------|--------------------------------|
D|--------------------------------|--------------------------------|
A|--------------------------------|--------------------------------|
E|-----------------12/------------|----------5--5--5--5--5--5------|


Chorus- x2

G|--------------------------------|
D|--------------------------------|
A|-----12-12-12-12-12-12-12-12----|
E|--------------------------------|

G|--------------------------------|
D|--------------------------------|
A|--------------------------------|
E|-----13-13-13-13-13-13-13-13----|

G|--------------------------------|
D|--------------------------------|
A|--------------------------------|
E|-----10-10-10-10-10-10-10-10----|

G|--------------------------------|
D|--------------------------------|
A|--------------------------------|
E|-----12-12-12-12-12-12-12-12----|

G|--------------------------------|
D|--------------------------------|
A|--------------------------------|
E|---5---5--5---5--5---5--5----5--|

G|--------------------------------|
D|--------------------------------|
A|--------------------------------|
E|---1---1--1---1--1---1--1----1--|

G|--------------------------------|
D|--------------------------------|
A|---0---0--0---0--0---0--0----0--|
E|--------------------------------|


Rest from 2:55 - 3:16

At 3:16 Play

Drop:

G|--------------------------------|--------------------------------|
D|--------------------------------|--------------------------------|
A|----------------12\-------------|--------------------------------|
E|--------------------------------|----5------5-------5-5-5--------|

G|--------------------------------|--------------------------------|
D|--------------------------------|--------------------------------|
A|--------------------------------|------12-12-12^-13-13-13^-13^13^|
E|-----------------5/-------------|--------------------------------|

G|--------------------------------|--------------------------------|
D|--------------------------------|--------------------------------|
A|----------------12\-------------|--------------------------------|
E|--------------------------------|--5--------------5--------------|

G|--------------------------------|--------------------------------|
D|--------------------------------|--------------------------------|
A|--------------------------------|--------------------------------|
E|-----------------5/-------------|----0--0--0--0--0--0--0--0------|

G|--------------------------------|--------------------------------|
D|--------------------------------|--------------------------------|
A|----------------12\-------------|--------------------------------|
E|--------------------------------|----5------5-------5-5-5--------|

G|--------------------------------|--------------------------------|
D|--------------------------------|--------------------------------|
A|--------------------------------|------12-12-12^-13-13-13^-13^13^|
E|-----------------5/-------------|--------------------------------|

G|--------------------------------|--------------------------------|
D|--------------------------------|--------------------------------|
A|----------------12\-------------|--------------------------------|
E|--------------------------------|--5--------------5--------------|

G|--------------------------------|--------------------------------|
D|--------------------------------|--------------------------------|
A|--------------------------------|--------------------------------|
E|-----------------12/------------|----------5--5--5--5--5--5------|

Sometimes you are going to have to listen the rhythm to figure out right timing in 
the chorus. Have fun!
Suggest correction
Give kudos to tab author, rate the tab!
1 2 3 4 5
comments
print report bad tab
guest
You may want to rate the tab now too:
select rating
Wanna post a correction for this tab? Suggest correction