Oops, an error
Loading. Please wait.

The Gallery Bass Tab

version 1
version 1

Whole song

by Muse
1,118 views 1 this week
no commentswrite comment
1 2 3 4 5
1 last vote to show rating
add to favorites
launch autoscroll
font size
0
reset
guitar tuner
Autoscroll
slow
fast
+/-
esc
set tempo
stop
Help us to improve Ultimate-Guitar.com Take our survey!
×
Author
Difficulty
novice
Band: Muse
Song: The Gallery
Album: Hullabaloo CD1
Bassist: Chris Wolstenholme
Tuning: Standard

No bass until 0:30 (listen very carefully for the rhythm)

G|------------|    |---------------|
D|----7-7---7-|    |----10-10---10-|
A|------------|    |---------------|
E|-5-5---5-5--| x2 |-8-8-----8-8---| x2 

G|------------|    |---------------|
D|----7-7---7-|    |----10-10---10-|
A|------------|    |---------------|
E|-5-5---5-5--| x2 |-8-8-----8-8---| x2 

G|----10-10---10-|------12-12-----12-|------14-14-----14-|------14-14-----14-|         
D|---------------|-------------------|-------------------|-------------------|
A|-8-8-----8-8---|-10-10-----10-10---|-12-12-----12-12---|-12-12-----12-12---|
E|---------------|-------------------|-------------------|-------------------|

G|----10-10---10-|------12-12-----12-|------14-14-----14-|------14-14-----14-|         
D|---------------|-------------------|-------------------|-------------------|
A|-8-8-----8-8---|-10-10-----10-10---|-12-12-----12-12---|-12-12-----12-12---|
E|---------------|-------------------|-------------------|-------------------|
      

G|---------------|    |----10-10---10-|----8-8---8-|----10-10---10-|
D|----10-10---10-|    |---------------|------------|---------------|
A|---------------|    |-8-8-----8-8---|-6-6---6-6--|-8-8-----8-8---|
E|-8-8-----8-8---| x6 |---------------|------------|---------------|

G|---------------|   
D|----10-10---10-|   
A|---------------|   
E|-8-8-----8-8---| x2 


G|------------|    |---------------|
D|----7-7---7-|    |----10-10---10-|
A|------------|    |---------------|
E|-5-5---5-5--| x2 |-8-8-----8-8---| x2 

G|------------|    |---------------|
D|----7-7---7-|    |----10-10---10-|
A|------------|    |---------------|
E|-5-5---5-5--| x2 |-8-8-----8-8---| x2 

G|----10-10---10-|------12-12-----12-|------14-14-----14-|------14-14-----14-|         
D|---------------|-------------------|-------------------|-------------------|
A|-8-8-----8-8---|-10-10-----10-10---|-12-12-----12-12---|-12-12-----12-12---|
E|---------------|-------------------|-------------------|-------------------|

G|----10-10---10-|------12-12-----12-|------14-14-----14-|------14-14-----14-|         
D|---------------|-------------------|-------------------|-------------------|
A|-8-8-----8-8---|-10-10-----10-10---|-12-12-----12-12---|-12-12-----12-12---|
E|---------------|-------------------|-------------------|-------------------|
      

G|---------------|    |----10-10---10-|----8-8---8-|----10-10---10-|
D|----10-10---10-|    |---------------|------------|---------------|
A|---------------|    |-8-8-----8-8---|-6-6---6-6--|-8-8-----8-8---|
E|-8-8-----8-8---| x6 |---------------|------------|---------------|

G|---------------|    
D|----10-10---10-|    
A|---------------|    
E|-8-8-----8-8---| x2 

Suggest correction
Give kudos to tab author, rate the tab!
1 2 3 4 5
comments
print report bad tab
guest
You may want to rate the tab now too:
select rating
Wanna post a correction for this tab? Suggest correction