Oops, an error
Loading. Please wait.

The Globalist bass

version 1
version 1

Whole song

Interactive

by Muse
6,396 views 15 this week
5 commentsread comments
1 2 3 4 5
x 12
add to favorites
×
Save as Personal and add changes to this tab that will be seen only by you. Learn more ›
×
You can save this tab as Personal to edit and correct it or add notes. All changes will be seen only by you. Learn more »
launch autoscroll
font size
0
reset
guitar tuner
edit
Autoscroll
slow
fast
+/-
esc
set tempo
stop
Author
Difficulty
intermediate
THE GLOBALIST - Muse
Tabbed by: tbob13
Tuning: EADG (Standard)

[No Bass] (until 1:35)

[Intro] (1:35-2:52)

G|-----------------------------------------------------------------------|
D|----(5)-----(5)-------(5)-----(5)-------(3)-----(3)-------(3)-----(3)--|
A|-----------------------------------------------------------------------|
E|-3-----------------3-----------------1-----------------1---------------|
   1 + 2 + 3 + 4 + | 1 + 2 + 3 + 4 + | 1 + 2 + 3 + 4 + | 1 + 2 + 3 + 4 + 

G|-----------------------------------------------------------------------|
D|----(2)-----(2)-------(2)-----(2)-------(7)-----(7)-------(7)-----(7)--|
A|-----------------------------------------------------------------------|
E|-0-----------------0-----------------5-----------------5---------------|
   1 + 2 + 3 + 4 + | 1 + 2 + 3 + 4 + | 1 + 2 + 3 + 4 + | 1 + 2 + 3 + 4 + 

G|-----------------------------------------------------------------------|
D|----(12)----(12)------(12)----(12)------(5)-----(5)-------(5)-----(5)--|
A|-----------------------------------------------------------------------|
E|-10----------------10-----------------3----------------3---------------|
   1 + 2 + 3 + 4 + | 1 + 2 + 3 + 4 + | 1 + 2 + 3 + 4 + | 1 + 2 + 3 + 4 + 

G|-----------------------------------------------------------------------|
D|-----------------------------------------------------------------------|
A|-----------------------------------------------------------------------|
E|-8-----------------8-----------------1-----------------1---------------|
   1 + 2 + 3 + 4 + | 1 + 2 + 3 + 4 + | 1 + 2 + 3 + 4 + | 1 + 2 + 3 + 4 + 

G|-----------------------------------------------------------------------|
D|-----------------------------------------------------------------------|
A|-----------------------------------------------------------------------|
E|-6-----------------6-----------------5-----------------10--------------|
   1 + 2 + 3 + 4 + | 1 + 2 + 3 + 4 + | 1 + 2 + 3 + 4 + | 1 + 2 + 3 + 4 + 
 
G|-----------------------------------------------------------------------|
D|-----------------------------------------------------------------------|
A|-----------------------------------------------------------------------|
E|-12----------------0-----------------5---------------------------------|
   1 + 2 + 3 + 4 + | 1 + 2 + 3 + 4 + | 1 + 2 + 3 + 4 + | 1 + 2 + 3 + 4 + 

[Verse 1] (2:52-4:42)
G|--------------------------------------------------------------------------------------|
D|--------------------------------------------------------------------------------------|
A|-----------------------------------------------------------------0-3---0--------------| x2
E|-3-----------------0-----------------5-----------------------0-3----------------------|
   1 + 2 + 3 + 4 + | 1 + 2 + 3 + 4 + | 1 e + a 2 e + a 3 e + a 4 e + a | 1 + 2 + 3 + 4 + 

G|-------------------------------------------------------------------------------------------------------|
D|-------------------------------------------------------------------------------------------------------|
A|-------------------------------------------------------------------------------------------------------|
E|-3-----------------0-----------------5-----------3-5-7 ----------5-7---8-----------7-8-9 ----------8-9-|
   1 + 2 + 3 + 4 + | 1 + 2 + 3 + 4 + | 1 e + a 2 e + a 3 e + a 4 e + a | 1 e + a 2 e + a 3 e + a 4 e + a

G|------------------------------------------------------------------------|
D|------------------------------------------------------------------------|
A|------------------------------------------------------------------------|
E|-10------10-10------3-------3-3-------8-------8-8-------1-------1-1-----|
   1 + 2 + 3  + 4 + | 1 + 2 + 3 + 4 + | 1 + 2 + 3 + 4 + | 1 + 2 + 3 + 4 + 

G|------------------------------------|
D|------------------------------------|
A|------------------------------------|
E|-6-------6-6-------12------12-12----|
   1 + 2 + 3 + 4 + | 1 + 2 + 3  + 4 + 

G|--------------------------------------------------------------------|
D|--------------------------------------------------------------------|
A|--------------------------------------------------------------------|
E|--5-----------3-5-7 ----------5-7---8-----------7-8-9 ----------8-9-|
    1 e + a 2 e + a 3 e + a 4 e + a | 1 e + a 2 e + a 3 e + a 4 e + a

G|------------------------------------------------------------------------|
D|------------------------------------------------------------------------|
A|------------------------------------------------------------------------|
E|-10------10-10------3-------3-3-------8-------8-8-------1-------1-1-----|
   1 + 2 + 3  + 4 + | 1 + 2 + 3 + 4 + | 1 + 2 + 3 + 4 + | 1 + 2 + 3 + 4 + 

G|------------------------------------|
D|------------------------------------|
A|------------------------------------|
E|-6-------6-6-------12------12-12----|
   1 + 2 + 3 + 4 + | 1 + 2 + 3  + 4 + 

G|--------------------------------------------------------------------|
D|--------------------------------------------------------------------|
A|--------------------------------------------------------------------|
E|--5-----------3-5-7 ----------5-7---8-----------7-8-10----------8-7-|
    1 e + a 2 e + a 3 e + a 4 e + a | 1 e + a 2 e + a 3 e + a 4 e + a

G|--------------------------------------------------------------------|
D|--------------------------------------------------------------------|
A|--------------------------------------------------------------------|
E|--5-----------3-5-7 ----------5-7---8-----------7-8-10----------8-7-|
    1 e + a 2 e + a 3 e + a 4 e + a | 1 e + a 2 e + a 3 e + a 4 e + a

G|-----------------------------------|
D|-----------------------------------|
A|-----------------------------------|
E|-5---------------------------------|
   1 + 2 + 3 + 4 + | 1 + 2 + 3 + 4 +

bass rests for 4  measures

[Solo] (4:42-6:16)
G|-------------------------------------|
D|-------------------------------------|
A|-12-0-0-12-0-0-12-0-0-12-0-0-6---6-/-| x4
E|-------------------------------------|
   1  e + a  2 e +  a 3 e  + a 4 e + a  

G|-------------------------------------|
D|-------------------------------------|
A|-10-0-0-10-0-0-10-0-0-10-0-0-9---9---| x2
E|-------------------------------------|
   1  e + a  2 e +  a 3 e  + a 4 e + a  

G|-------------------------------------------------------------------|
D|-------------------------------------------------------------------|
A|-7-0-0-7-0-0-7-0-0-7-0-0-5---5-----7-0-0-7-0-0-7-0-0-7-0-0-12--12--|
E|-------------------------------------------------------------------|
   1 e + a 2 e + a 3 e + a 4 e + a | 1 e + a 2 e + a 3 e + a 4 e + a

G|-------------------------------------|
D|-------------------------------------|
A|-13-0-0-13-0-0-13-0-0-13-0-0-10--10--| x2
E|-------------------------------------|
   1  e + a  2 e +  a 3 e  + a 4 e + a  

G|-------------------------------------|
D|-------------------------------------|
A|-12-0-0-12-0-0-12-0-0-12-0-0-10--10--| x2
E|-------------------------------------|
   1  e + a  2 e +  a 3 e  + a 4 e + a  

G|-------------------------------------------------------------------|
D|-------------------------------------------------------------------|
A|-5-0-0-5-0-0-5-0-0-5-0-0-3---3-----5-0-0-5-0-0-5-0-0-5-0-0-8---8---|
E|-------------------------------------------------------------------|
   1 e + a 2 e + a 3 e + a 4 e + a | 1 e + a 2 e + a 3 e + a 4 e + a

G|---------------------------------|
D|---------------------------------|
A|-7-0-0-7-0-0-7-0-0-7-0-0-5---5---| x2
E|---------------------------------|
   1 e + a 2 e + a 3 e + a 4 e + a 

G|---------------------------------|
D|---------------------------------|
A|-5-0-0-5-0-0-5-0-0-5-0-0-3---3---| x2
E|---------------------------------|
   1 e + a 2 e + a 3 e + a 4 e + a 

G|-------------------------------------------------------------------|
D|-------------------------------------------------------------------|
A|-3-0-0-3-0-0-3-0-0-3-0-0-7---7-----3-0-0-3-0-0-3-0-0-3-0-0-9---9---|
E|-------------------------------------------------------------------|
   1 e + a 2 e + a 3 e + a 4 e + a | 1 e + a 2 e + a 3 e + a 4 e + a

G|-------------------------------------|
D|-------------------------------------|
A|-10-0-0-10-0-0-10-0-0-10-0-0-9---9---| x2
E|-------------------------------------|
   1  e + a  2 e +  a 3 e  + a 4 e + a  

G|-------------------------------------------------------------------|
D|-------------------------------------------------------------------|
A|-7-0-0-7-0-0-7-0-0-7-0-0-5---5-----7-0-0-7-0-0-7-0-0-7-0-0-12--12--|
E|-------------------------------------------------------------------|
   1 e + a 2 e + a 3 e + a 4 e + a | 1 e + a 2 e + a 3 e + a 4 e + a

G|-------------------------------------|
D|-------------------------------------|
A|-13-0-0-13-0-0-13-0-0-13-0-0-10--10--| x2
E|-------------------------------------|
   1  e + a  2 e +  a 3 e  + a 4 e + a  

G|-------------------------------------|
D|-------------------------------------|
A|-12-0-0-12-0-0-12-0-0-12-0-0-10--10--| x2
E|-------------------------------------|
   1  e + a  2 e +  a 3 e  + a 4 e + a  

G|-------------------------------------------------------------------|
D|-------------------------------------------------------------------|
A|-5-0-0-5-0-0-5-0-0-5-0-0-3---3-----5-0-0-5-0-0-5-0-0-5-0-0-8---8---|
E|-------------------------------------------------------------------|
   1 e + a 2 e + a 3 e + a 4 e + a | 1 e + a 2 e + a 3 e + a 4 e + a

G|---------------------------------|
D|---------------------------------|
A|-7-0-0-7-0-0-7-0-0-7-0-0-5---5---| x2
E|---------------------------------|
   1 e + a 2 e + a 3 e + a 4 e + a 

G|---------------------------------|
D|---------------------------------|
A|-5-0-0-5-0-0-5-0-0-5-0-0-3---3---| x2
E|---------------------------------|
   1 e + a 2 e + a 3 e + a 4 e + a 

G|-------------------------------------------------------------------|
D|-------------------------------------------------------------------|
A|-3-0-0-3-0-0-3-0-0-3-0-0-7---7-----3-0-0-3-0-0-3-0-0-3-0-0-10--10--|
E|-------------------------------------------------------------------|
   1 e + a 2 e + a 3 e + a 4 e + a | 1 e + a 2 e + a 3 e + a 4 e + a

G|-------------------------------------|
D|-------------------------------------|
A|-12-0-0-12-0-0-12-0-0-12-0-0-6---6-/-| x4
E|-------------------------------------|
   1  e + a  2 e +  a 3 e  + a 4 e + a  

G|-------------------------------------|
D|-------------------------------------|
A|-13-0-0-13-0-0-13-0-0-13-0-0-10--10--| x4
E|-------------------------------------|
   1  e + a  2 e +  a 3 e  + a 4 e + a  

[Solo Part 2] (6:14-7:42)
G|-------------------------------------------------------------------|
D|-------------------------------------------------------------------|
A|-0-----0-----0-----0-----0-0-0-0---2-----2-----2-----2-----2-2-2-2-|
E|-------------------------------------------------------------------|
   1 e + a 2 e + a 3 e + a 4 e + a | 1 e + a 2 e + a 3 e + a 4 e + a

G|-------------------------------------------------------------------|
D|-------------------------------------------------------------------|
A|-3-----3-----3-----3-----3-3-3-3---5-----5-----5-----5-----5-5-5-5-|
E|-------------------------------------------------------------------|
   1 e + a 2 e + a 3 e + a 4 e + a | 1 e + a 2 e + a 3 e + a 4 e + a

G|-------------------------------------------------------------------|
D|-------------------------------------------------------------------|
A|-0-----0-----0-----0-----0-0-0-0---2-----2-----2-----2-----2-2-2-2-|
E|-------------------------------------------------------------------|
   1 e + a 2 e + a 3 e + a 4 e + a | 1 e + a 2 e + a 3 e + a 4 e + a

G|-------------------------------------------------------------------|
D|-------------------------------------------------------------------|
A|-3-----3-----3-----3-----3-3-3-3---4-----4-----4-------------------|
E|-------------------------------------------------------------------|
   1 e + a 2 e + a 3 e + a 4 e + a | 1 e + a 2 e + a 3 e + a 4 e + a
                                                   (tempo slows dramatically here)

G|-----------------------------------------------------------------------|
D|-----------------------------------------------------------------------|
A|-5---------------------------------------------------------------------|
E|-----------------------------------------------------------------------|
   1 + 2 + 3 + 4 + | 1 + 2 + 3 + 4 + | 1 + 2 + 3 + 4 + | 1 + 2 + 3 + 4 +

G|-----------------------------------------------------------------------|
D|-----------------------------------------------------------------------| 
E|-----------------------------------------------------------------------|
   1 + 2 + 3 + 4 + | 1 + 2 + 3 + 4 + | 1 + 2 + 3 + 4 + | 1 + 2 + 3 + 4 +

rest for a long time

[Second Verse] (7:46-8:26) 
G|-------------------------------------------------------------------|
D|-------------------------------------------------------------------|
A|-5---------------7-----------5-7---9---------9-7-9-12------------/-|
E|-------------------------------------------------------------------|
   1 e + a 2 e + a 3 e + a 4 e + a | 1 e + a 2 e + a 3 e + a 4 e + a

G|-------------------------------------------------------------------|
D|-----------------------------------9---------------------------7h9-|
A|-0-----------0-/-5-----------5-------------------------------------|
E|-------------------------------------------------------------------|
   1 e + a 2 e + a 3 e + a 4 e + a | 1 e + a 2 e + a 3 e + a 4 e + a
G|-------------------------------------------------------------------|
D|-7-------------------------------------------------------------0-/-|
A|-----------------------------------0-----------0-/-5---------------|
E|-------------------------------------------------------------------|
   1 e + a 2 e + a 3 e + a 4 e + a | 1 e + a 2 e + a 3 e + a 4 e + a

G|---------------------------------------------------------------------|
D|-12--------------------------11h12--11----------------7--------------|
A|---------------------------------------------------------------------|
E|---------------------------------------------------------------------|
   1 e + a 2 e + a 3 e + a 4 e +  a | 1 e + a 2 e + a 3 e + a 4 e + a

G|-------------------------------------------------------------------|
D|-5-----4-5-7-5-4-5-4-2-5-4-2---------------------------------------|
A|-----------------------------4-5-----------------------------------|
E|-----------------------------------3---------------------------3---|
   1 e + a 2 e + a 3 e + a 4 e + a | 1 e + a 2 e + a 3 e + a 4 e + a

G|-------------------------------------------------------------------|
D|-------------------------------------------------------------------|
A|-9-----------8h9-8---------8-8-7---0-------------/-12--------------|
E|-------------------------------------------------------------------|
   1 e + a 2 e + a 3 e + a 4 e + a | 1 e + a 2 e + a 3 e + a 4 e + a

G|-------------------14-14-14----------14-------|
D|-------11-11-14-14----------------------14----|
A|-12-12------------------------------------12--|
E|----------------------------------------------|
   1  e  +  a  2  e  +  a  3  e  +  a  4  e + a 

[Verse 3] (8:26-9:09)
G|--------------------------------------------------------------------|
D|--------------------------------------------------------------------|
A|-5---------------7-----------5-7---9---------9-7-9---12-----------/-|
E|--------------------------------------------------------------------|
   1 e + a 2 e + a 3 e + a 4 e + a | 1 e + a 2 e + a 3 e  + a 4 e + a

G|-------------------------------------------------------------------|
D|-----------------------------------9---------------9---9-----9-7-9-|
A|-0---0-----3-4-0-5---------5-4-5-----------------------------------|
E|-------------------------------------------------------------------|
   1 e + a 2 e + a 3 e + a 4 e + a | 1 e + a 2 e + a 3 e + a 4 e + a

G|-------------------------------------------------------------------|
D|-7---------------------------7-------------------------------------|
A|-----------------0-------------7---0-------0-3-4-0-5-------5-5-4-5-|
E|-------------------------------------------------------------------|
   1 e + a 2 e + a 3 e + a 4 e + a | 1 e + a 2 e + a 3 e + a 4 e + a

G|---------------------------------------------------------------------|
D|-12--------------12--12------11h12--11--------------7----------------|
A|---------------------------------------------------------------------|
E|---------------------------------------------------------------------|
   1 e + a 2 e + a 3 e + a 4 e +  a | 1 e + a 2 e + a 3 e + a 4 e + a


G|-------------------------------------------------------------------|
D|-5-----4-5-7-5-4-5-4-2-5-4-2---------------------------------------|
A|-----------------------------4-5-----------------------------------|
E|-----------------------------------3---------------3---3-----------|
   1 e + a 2 e + a 3 e + a 4 e + a | 1 e + a 2 e + a 3 e + a 4 e + a

G|-------------------------------------------------------------------|
D|-------------------------------------------------------------------|
A|-9-----------8h9-8---------8-8-7---0-------------/-12--------------|
E|-------------------------------------------------------------------|
   1 e + a 2 e + a 3 e + a 4 e + a | 1 e + a 2 e + a 3 e + a 4 e + a

G|-------------------14-14---------------------|
D|-------11-11-14-14-------14-14-11-11---------|
A|-12-12-------------------------------12------|
E|---------------------------------------------|
   1  e  +  a  2  e  +  a  3  e  +  a  4  e + a 

[Verse 3] (9:09-10:07)
G|--------------------------------------------------------------------|
D|--------------------------------------------------------------------|
A|-5---------------7---------7-5-7---9---------9-7-9---12-----------/-|
E|--------------------------------------------------------------------|
   1 e + a 2 e + a 3 e + a 4 e + a | 1 e + a 2 e + a 3 e  + a 4 e + a

G|-------------------------------------------------------------------|
D|-----------------------------------9---------------9---9-----9-7-9-|
A|-0---0-----3-4-0-5---------5-4-5-----------------------------------|
E|-------------------------------------------------------------------|
   1 e + a 2 e + a 3 e + a 4 e + a | 1 e + a 2 e + a 3 e + a 4 e + a

G|--------------------------------------------------------------------|
D|-11------------9-11-9-7-9-7-6-7-------------------------------------|
A|--------------------------------7---0-------0-3-4-0-5-----5-5-5-4-5-|
E|--------------------------------------------------------------------|
   1 e + a 2 e + a 3  e + a 4 e + a | 1 e + a 2 e + a 3 e + a 4 e + a


G|-7-------7-------7---7-----7-8-7---9-6---------6--------------------|
D|---------------------------------------7-----7---7-5---------7-5-4--|
A|--------------------------------------------------------------------|
E|--------------------------------------------------------------------|
   1 e + a 2 e + a 3 e + a 4 e + a | 1 e + a 2 e + a 3 e + a 4 e + a

G|--------------------------------------------------------------------|
D|-5-7-5-4-5-4-2-5-4-2-0-4-2-0----------------------------------------|
A|-----------------------------4-5------------------------------------|
E|-----------------------------------3---------------3---3-----3-2-3--|
   1 e + a 2 e + a 3 e + a 4 e + a | 1 e + a 2 e + a 3 e + a 4 e + a

G|-------------------------------------------------------------------|
D|-------------------------------------------------------------------|
A|---------9---8h9-8----------8-8-7---0-------------/---12-----------|
E|-2 ----------------------------------------------------------------|
   1 e + a 2 e + a 3 e + a 4 e + a | 1 e + a 2 e + a 3 e + a 4 e + a

G|-------------2-2---------------------------------------------------|
D|---------2-2-----2-2-----------------------------------------------|
A|-0-0-4-4-------------4-4-0---------5-------------------------------|
E|-------------------------------------------------------------------|
   1 e + a 2 e + a 3 e + a 4 e + a | 1 e + a 2 e + a 3 e + a 4 e + a

G|-------------------------------------------------------------------|
D|-------------------------------------------------------------------|
A|-5-----------------------------------------------------------------|
E|-------------------------------------------------------------------|
   1 e + a 2 e + a 3 e + a 4 e + a | 1 e + a 2 e + a 3 e + a 4 e + a



************************************

| (n)  Ghost note
| /    Slide up
| h    Hammer-on

************************************

            
            
Suggest correction
Creating personal tab
Creating personal tab
You can edit any tab online and save it as your Personal.

You can edit, replace or remove any tab part or add personal notes – all changes will be seen only by you.

Personal tabs can be accessed anytime from any device, even offline.
Learn more »
comments
print report bad tab
5 comments total. Showing first comments.
0 reply
Museluva 173 Jun 07, 2015 10:58 AM

Nice! Sounds right!

0 reply
Bliss101 167 Jun 07, 2015 12:48 PM

Great stuff mate! Tabbed it out myself and I think you did an awesome job!

0 reply
wybor 10 Sep 17, 2015 05:12 AM

awesome tab man i love it

guest
You may want to rate the tab now too:
select rating
Wanna post a correction for this tab? Suggest correction