Oops, an error
Loading. Please wait.

The Groove Bass

version 1
version 1

Whole song

by Muse
12,226 views 9 this week
4 commentsread comments
1 2 3 4 5
x 8
add to favorites
launch autoscroll
font size
0
reset
guitar tuner
Autoscroll
slow
fast
+/-
esc
set tempo
stop
-----------------------------------------------------------------------------
			     The Groove - Muse
-----------------------------------------------------------------------------
Tabbed By : MadClownDisease
e-mail: hereticbynature@hotmail.com

Tuning: Standard

This is my first tab so i apologise for any mistakes. Contact me with any suggestions.
The bass line is very similar to the guitar part but has some slight variations and none 
the typical Muse guitar craziness.

Intro
(Play this on the last bar of the crazy guitar intro)
G|--------------|
D|--------------|
A|-14/-----9-7--|
E|--------------|

Verse
G|--------------------------6----------------------------------------|
D|---4---7-----------7------------------------7h9p7---------9-7------|
A|---------9-------------4----5--6---7-7---7h9------9-7h9-9-----99-7-|
E|-2---2-----99-7-5----5-----------0-----0---------------------------|

Chorus
G|-----------6---------------------------------------------|----------|
D|----7---------------------6-7-8----9------7--------------|-9-7------|
A|--------4----5-6----7-7-----------------5---7-8----------|-----7h9p7|
E|-5----5----------0-----0--------7----7----------0--------|----------|
                                                  (Only play this end part)
                                                  (the first time through )
                                                  (the chorus riff each   )
                                                  (chorus, the second time)
                                                  (rest for twice as long)
Structure:
Intro
Verse x4
Chorus (with end bar)
Chorus (without end bar)
Verse x2
Chorus (with end bar)
Chorus (without end bar)
Verse x2 (This is during the guitar solo)
Chorus (with end bar)
Chorus (without end bar)

| t  tap
| /  slide up
|   slide down
| h  hammer-on
| p  pull-off
| ~  vibrato
| +  harmonic
| x  Mute note
=============================================================================
Suggest correction
comments
print report bad tab
4 comments total. Showing first comments.
0 reply
METSOAD 1,622 Nov 13, 2006 09:51 PM

this looks basically correct

0 reply
Alreddyded 83 Feb 09, 2007 10:57 AM

This looks correct basically

0 reply
CaptainJack666 80 Apr 09, 2008 08:57 AM

Great tab! thanx!!

guest
You may want to rate the tab now too:
select rating
Wanna post a correction for this tab? Suggest correction