Oops, an error
Loading. Please wait.

The Groove Bass Tab

version 2
version 2

Whole song

by Muse
11,368 views 21 this week
5 commentsread comments
1 2 3 4 5
excellent!
x 18
add to favorites
launch autoscroll
font size
0
reset
guitar tuner
Tab Pro tools
  • play this tab
  • loop segment
  • change instrument
  • show fretboard
  • metronome
×
Best way to learn
"The Groove"
Autoscroll
slow
fast
+/-
esc
set tempo
stop
Contributor
Difficulty
novice
----------------------------------------------------------------------------
                               The Groove – Muse
----------------------------------------------------------------------------

Tuning: Standard (EADG)


Intro: (no Bass)

Verse: (Bass)

     Q    E.  S E  E  S S S S    Q    E.  S E  E  E  E     Q    Q.     E  Q
G||-------------2-------------|----------------6--------|------------------|
D||-------4--------4----------|-------7-----------------|--------------9--7|
A||-------------------4-3-2-L-|--0--------0-4-----5--6--|-------7----------|
E||--2--------2---------------|-------------------------|--0---------------|

  Q    Q    E  E  S S S  S    Q    E.  S E  E  S S S S
---------------------------|-------------2-------------|
------------9--7-----------|-------4--------4----------|
--9----9----------9-7-9\-L-|-------------------4-3-2-L-|
---------------------------|--2--------2---------------| repeat x3

  Q    E.  S E  E  S S S S    Q    E.  S E  E  E  E     Q    Q.     E  Q
-------------2-------------|----------------6--------|---------------------|
-------4--------4----------|-------7-----------------|--------------9--7---|
-------------------4-3-2-L-|--0--------0-4-----5--6--|-------7-------------|
--2--------2---------------|-------------------------|--0------------------|


  Q    Q    E  E  E  E
------------------------|
------------7-----------|
--9----9-------4--3--2--|
------------------------|


Chorus: (Bass)

     Q    E.  S E  E  E  E     Q    E.  S E  E  E  E
G||----------------6--------|-------------------------|
D||-------7-----------------|----------------6--------|
A||--0--------0-4-----5--6--|-------7-----------------|
E||-------------------------|--0--------0-4-----5--6--|


  Q    E.  S E  E  E  E     Q    Q    E  E  E  E     Q    E.  S E  E  E  E
-------4-----------------|------------------------|----------------6-------|
----------------7--------|------------7-----------|-------7----------------|
-----------0-5-----7--8--|--9----9-------4--3--2--|--0--------0-4-----5--6-|
--7----------------------|------------------------|------------------------|


  Q    E.  S E  E  E  E     Q    E.  S E  E  E  E     W
-------------------------|-------4-----------------|-------------------||
----------------6--------|----------------7--------|-------------------||
-------7-----------------|-----------0-5-----7--8--|--9----------------||
--0--------0-4-----5--6--|--7----------------------|-------------------||


Verse 2: (Bass)

// just the same as in Verse 1

Chorus: (Bass)

// just the same as in Chorus

Solo: (Bass)

// just the same as in Verse 1, then play Chorus


Duration Legend
---------------
W - whole
H - half
Q - quarter
E - 8th
S - 16th
T - 32nd
X - 64th
. - note dotted
|-n-|  - n-tuplets

Tablature Legend
----------------
L - tied note
x - dead note
g - grace note
(n) - ghost note
> - accentuded note
NH - natural harmonic
AH - artificial harmonic
TH - tapped harmonic
SH - semi harmonic
PH - pitch harmonic
h - hammer on
p - pull off
b - bend
br - bendRelease
pb - preBend
pbr - preBendRelease
brb - bendReleaseBend
\n/ - tremolo bar dip
\n - tremolo bar dive
-/n - tremolo bar Release up
/n\ - tremolo bar inverted dip
/n - tremolo bar return
-\n - tremolo bar Release down
S - shift slide
s - legato slide
/ -  slide into from below or out of upwards
\ -  slide into from above or out of downwards
~ - vibrato
W - wide vibrato
tr - trill
TP - tremolo picking
T - tapping
S - slap
P - pop
< - fade in
^ - brush up
v - brush down
============================================================================
comments
print report bad tab
5 comments total. Showing first comments.
0 reply
M3CKY wrote on June 23 2007, 04:33 am

Great tab! thx for putting the timing in :)

0 reply
TJ1991 wrote on August 21 2008, 07:28 pm

excellent!

0 reply
cm261 wrote on December 9 2008, 05:21 pm

Perfect, great job!!!

I want to post or [tab]
guest
You may want to rate the tab now too:
select rating
Please do not post tabs as comments. Select "correction" instead!