Oops, an error
Loading. Please wait.

The Groove Tab

version 2
version 2

Whole song

by Muse
2,295 views 6 this week
1 commentread comment
1 2 3 4 5
accurate
x 4
add to favorites
launch autoscroll
font size
0
reset
how to read this tab
guitar tuner
Autoscroll
slow
fast
+/-
esc
set tempo
stop
Help us to improve Ultimate-Guitar.com Take our survey!
×
Muse - The Groove

verse

e-------------------------------------------------------------------|
b-------------------------------------------------------------------|
g--------------------------6----------------------------------------|
d----4---7----------7-------------------------7h9p7-----7h9-9b10-7--|
a----------9------------4-----5-6----7-7---7h9-----7h9------------9-|
e--2---2-----9-7-5----5------------0-----0--------------------------|

chorus

e--------------------------------------------------------------------------|
b--------------------------------------------------------------------------|
g------------6--------------------------------7----------------------------|
d----7-----------------------6-7-8-----9----------------4-4-------7h9p7----|
a---------4-----5-6-----7-------------------5---7-8------------7h9-----7h9-|
e--5---5--------------0---0---------7----7------------2-----2--------------|

solo

e--------------------------------------------------------------------|
b--------------------------------------------------------------------|
g--9s11-11-9h11p9----9-----------------------------------------------|
d-----------------11---9-11-11-9h11p9-7h9h7-9b10-10-7-6----7h9p9-----|
a-------------------------------------------------------7h9------7h9-|
e--------------------------------------------------------------------|


e-----------------------------------------------------------|
b-----------------------------------------------------------|
g-----------------------------------------------------------|
d-----------------------------------------------------------|
a--9s7--7-7s5--5-5s4--4-4s2--2-2b4-2b4-2-0-------0h2p0------|
e------------------------------------------4-0h2-------0h2--|

e------------------------------------------------------------------------|
b---------------------14----14----14----14----14---------------14--------|
g--------14h16p14-16--16b18-16b18-16b18-16b18-16--------14h16--16b18--16-|
d--14h16------------------------------------------14h16------------------|
a------------------------------------------------------------------------|
e------------------------------------------------------------------------|


e-----------------------------------------------------------------------------------|
b--------------14b15-14-14b15--12h14h12-10h12p10-9h10p9-7h9p7-5h7p5-3h5p3-2h3p2-0-2-|
g--------14h16----------------------------------------------------------------------|
d--14h16----------------------------------------------------------------------------|
a-----------------------------------------------------------------------------------|
e-----------------------------------------------------------------------------------|

e--------------------------------------|
b--2-2---2-----------------------------|
g------4---4-2-4-4b5-4--4b5-4-2-1------|
d-----------------------------------4--|
a-----------------------------------4--|
e-----------------------------------2--|
Suggest correction
comments
print report bad tab
1 comment total.
0 reply
Gaz_m2k5 240 wrote on June 13 2006, 02:31 pm

9b10 in the first riff?

guest
You may want to rate the tab now too:
select rating
Please do not post tabs as comments. Select "correction" instead!