Oops, an error
Loading. Please wait.

The Groove Bass

version 3
version 3

Whole song

1,473 views 3 this week
3 commentsread comments
1 2 3 4 5
1 last vote to show rating
add to favorites
launch autoscroll
font size
0
reset
guitar tuner
×
Best way to learn
"The Groove"
Autoscroll
slow
fast
+/-
esc
set tempo
stop
Author
Difficulty
Tuning
  follow
novice
D A D G
Standard Tuning =)

Intro
(Play at the end of the whacky guitar intro)
G|-4/-----------|
D|---------4-2--|
A|--------------|
E|--------------|

Verse (Just play this through the Guitar solo)
G|-------2-----------2------6-----------------2h4p2---------4-2---------|
D|---4-----4------------------0--1---2-2---2h4------4-2h4-4-----4-3-2---|
A|-----------4-3-2--0----0-4--------------------------------------------|
E|-2---2---------------------------0-----0------------------------------|

Chorus
G|----2------6--------------1-2-3----4------2--------------|-4-2------|
D|-------------0-1----2-2-----------------0---2-3----------|-----2h4p2|
A|-0----0-4-----------------------2------------------------|----------|
E|-----------------0-----0-------------2----------0--------|----------|

Structure: Intro
           Verse x4
           Chorus (with end bit)
           Chorus
           Verse x2
           Chorus (with end bit)
           Chorus
           Verse x2 (the guitar solo)
           Chorus (with end bit)
           Chorus 
Suggest correction
Give kudos to tab author, rate the tab!
1 2 3 4 5
comments
print report bad tab
3 comments total.
0 reply
cm261 30 Dec 09, 2008 12:20 PM

You've just taken the other tab and shifted it 5 or 10 frets in places for different strings, this is completely wrong, the other tab is perfect and I have no idea why you've posted this. You're structure is even identical to his, all you have achieved is copying and pasting whilst wrecking it. Nice work.

0 reply
cm261 30 Dec 09, 2008 12:23 PM

By the way, you accidentally listed it as drop D, no idea if you can change it but if you can you may want to.

0 reply
<<Carnage>> 31 Dec 11, 2008 09:23 AM

its actually easier to play tbh..

guest
You may want to rate the tab now too:
select rating
Wanna post a correction for this tab? Suggest correction