Oops, an error
Loading. Please wait.

The Groove Tab

version 3
version 3

Whole song

by Muse
49,527 views 75 this week
12 commentsread comments
1 2 3 4 5
excellent!
x 34
add to favorites
launch autoscroll
font size
0
reset
how to read this tab
guitar tuner
Autoscroll
slow
fast
+/-
esc
set tempo
stop
Help us to improve Ultimate-Guitar.com Take our survey!
×
Author
Difficulty
novice
----------------------------------------------------------------------------
                               The Groove – Muse
----------------------------------------------------------------------------

Tuning: Standard (EADGBE)


Intro: (no Guitar)

Verse 1: (Overdrive Guitar)

     Q    E.  S E  E  S S S S    Q    E.  S E  E  E  E
E||---------------------------|-------------------------|
B||---------------------------|-------------------------|
G||-------------2-------------|----------------6--------|
D||-------4--------4----------|-------7-----------------|
A||-------------------4-3-2-L-|--0--------0-4-----5--6--|
E||--2--------2---------------|-------------------------|


                   |--3--| 
  Q    Q.     S  S S  S  S S. T    Q    E  E  E  E  S S E
--------------------------------|---------------------------|
--------------------------------|---------------------------|
--------------------------------|---------------------------|
-------------------7h-9p-7------|-------------9--7----------|
-------7------7h-9---------9--7-|--9----9--L--------9-7-9\--|
--0-----------------------------|---------------------------| repeat x3


  Q    E.  S E  E  S S S S    Q    E.  S E  E  E  E
---------------------------|-------------------------|
---------------------------|-------------------------|
-------------2-------------|----------------6--------|
-------4--------4----------|-------7-----------------|
-------------------4-3-2-L-|--0--------0-4-----5--6--|
--2--------2---------------|-------------------------|


                   |--3--|
  Q    Q.     S  S S  S  S S. T    Q    E  E  E  E  E  E
--------------------------------|-------------------------|
--------------------------------|-------------------------|
--------------------------------|-------------------------|
-------------------7h-9p-7------|-------------7-----------|
-------7------7h-9---------9--7-|--9----9--L-----4--3--2--|
--0-----------------------------|-------------------------|


Chorus: (Overdrive Guitar)

     Q    E.  S E  E  E  E     Q    E.  S E  E  E  E
E||-------------------------|-------------------------|
B||-------------------------|-------------------------|
G||----------------6--------|-------------------------|
D||-------7-----------------|----------------6--------|
A||--0--------0-4-----5--6--|-------7-----------------|
E||-------------------------|--0--------0-4-----5--6--|


  Q    E.  S E  E  E  E     Q    E  E  E  E  E  E     Q    E.  S E  E  E  E
-------------------------|-------------------------|-----------------------|
-------------------------|-------------------------|-----------------------|
-------4-----------------|-------------------------|----------------6------|
----------------7--------|-------------7-----------|-------7---------------|
-----------0-5-----7--8--|--9----9--L-----4--3--2--|--0--------0-4-----5--6|
--7----------------------|-------------------------|-----------------------|


  Q    E.  S E  E  E  E     Q    E.  S E  E  E  E
-------------------------|-------------------------|
-------------------------|-------------------------|
-------------------------|-------4-----------------|
----------------6--------|----------------7--------|
-------7-----------------|-----------0-5-----7--8--|
--0--------0-4-----5--6--|--7----------------------|


  Q    S S S S S S S S S S E     Q    E.  S E  E  S S S S
-------x-x-x-x-x-x-x-x-x-x-x--|---------------------------|
-------x-x-x-x-x-x-x-x-x-x-x--|---------------------------|
-------x-x-x-x-x-x-x-x-x-x-x--|-------------2-------------|
-------x-x-x-x-x-x-x-x-x-x-x--|-------4--------4----------|
--9----x-x-x-x-x-x-x-x-x-x-x--|-------------------4-3-2-L-|
-------x-x-x-x-x-x-x-x-x-x-x--|--2--------2---------------|


Verse 2: (Overdrive Guitar)

//just the same as in Verse 1

Chorus: (Overdrive Guitar)

//just the same as in Chorus

Solo: (Overdrive Guitar)

               |---3--|                              |---3---|            
      H        S   S  S  E  E   E     S   Q    S E   S   S   S E   E  E
E||--------------------------------|-------------------------------------|
B||--------------------------------|-------------------------------------|
G||--11--------9h-11p-9-----9------|-------------------------------------|
D||---------------------11-----11--|--9h-11----L-L--10h-11p-10-9------9--|
A||--------------------------------|------------------------------12-----|
E||--------------------------------|-------------------------------------|


                     |-3-|                   |--3--|             
  H          E  S  S S S S E     S E  S Q    S  S  S S S S S E
------------------------------|------------------------------x--|
------------------------------|------------------------------x--|
------------------------------|------------------------------x--|
--9br--------L-------7-9-7----|--------------7h-9p-7---x---x----|
----------------7h-9-------7--|--7-9--L-9------------9-x---x----|
------------------------------|------------------------x---x----|


  E   S E   S E   S E  S E  S  S    H          E  E  E  S S
---------------------------------|--------------------------|
---------------------------------|--------------------------|
---------------------------------|--------------------------|
---------------------------------|--------------------------|
--9S--7-7S--5-5S--4-4--L-2--0h-2-|--2br--------L--2--0--2-0-|
---------------------------------|--------------------------|


  H          E  E  E  S  S     H        E  S   S S   S E
----------------------------|-----------------------------|
----------------------------|-----------------------------|
----------------------------|--------------------9h-11-9--|
----------------------------|--------------9h-11----------|
--2br--------L--2--0--------|-----------------------------|
----------------------2p-0h-|--2--------L-----------------|


                          |--3-|                                         
   Q      Q      E    E   S  S S  E      Q      Q.     S   S  S   S  E
---9------9------9-------------------|----------------------------------|
--12b----12b----12b--12--10-12-9-10--|--12b----12------------10h-12-10--|
-------------------------------------|-----------------9h-11------------|
-------------------------------------|----------------------------------|
-------------------------------------|----------------------------------|
-------------------------------------|----------------------------------|


  H          H
--9b~--------9br~--------|
-------------------------|
-------------------------|
-------------------------|
-------------------------|
-------------------------|


  |--3--|  |--3--|  |--3--|  |--3--| |--3--| |--3--| |--3--| |-3-|
  S  S  S  S  S  S  S  S  S  S  S  S S  S  S S  S  S S  S  S S S S
--7h-9p-7S-5h-7p-5S-4h-5p-4S-2h-4p-2-0h-2p-0-----------------------|
---------------------------------------------4h-5p-4-2h-4p-2---2---|
-------------------------------------------------------------4---4-|
-------------------------------------------------------------------|
-------------------------------------------------------------------|
-------------------------------------------------------------------|


  H        E  E  E  S S    H        E  E  E  S S    H          E  E  E  E
------------------------|------------------------|-------------------------|
------------------------|------------------------|-------------------------|
--4br------L--4--2--4-2-|--4br------L--4--2--4-2-|--4br--------L--4--2--1--|
------------------------|------------------------|-------------------------|
------------------------|------------------------|-------------------------|
------------------------|------------------------|-------------------------|


  W                   Q    Q    Q    Q
-------------------|----------------------||
-------------------|----------------------||
-------------------|----------------------||
--4----------------|--L-------------------||
-------------------|----------------------||
-------------------|----------------------||
Suggest correction
comments
print report bad tab
12 comments total. Showing first comments.
0 reply
PLUGINCHILD 30 wrote on April 8 2007, 01:21 pm

what are the L mean

0 reply
Gaz_m2k5 240 wrote on November 26 2007, 11:20 am

What do any of the letters mean

+2 reply
nugiboy 172 wrote on December 11 2007, 06:17 pm

I dont really get the solo, but good tab

guest
You may want to rate the tab now too:
select rating
Wanna post a correction for this tab? Suggest correction