Oops, an error
Loading. Please wait.

The Groove Bass Tab

version 4
version 4

Whole song

by Muse
4,441 views 36 this week
no commentswrite comment
1 2 3 4 5
x 4
add to favorites
launch autoscroll
font size
0
reset
guitar tuner
Autoscroll
slow
fast
+/-
esc
set tempo
stop
Help us to improve Ultimate-Guitar.com Take our survey!
×
Author
Tuning: E A D G
Tabbed by: James Colgan (jamescol89@hotmail.com)

Intro: No Bass

Pre Verse:
G|-----------|
D|-----------|
A|-14\--9-7--|
E|-----------|


Verse: Part 1 X3
G|---------2----------|-----------6------|
D|----4------4--------|----7-------------|
A|-------------4-3-2--|-0-----0-4---5-6--|
E|-2-----2------------|------------------|

G|-----------------------|---------------------|
D|------------7h9p7------|-------9--7----------|
A|----7---7h9-------9-7--|-9--9--------9-7-9\--|
E|-0----0----------------|---------------------|

Verse: Part 2 X1
G|---------2----------|-----------6------|
D|----4------4--------|----7-------------|
A|-------------4-3-2--|-0-----0-4---5-6--|
E|-2-----2------------|------------------|

G|-----------------------|------------------|
D|-------------7h9p7-----|-------7----------|
A|----7---7h9--------9-7-|-9--9----4--3--2--|
E|-0----0----------------|------------------|


Chorus: X1
G|-----------6------|------------------|
D|----7-------------|-----------6------|
A|-0-----0-4---5-6--|----7-------------|
E|------------------|-0-----0-4---5-6--|

G|-------------------|----------------|-----------6------|
D|----9------7-------|-------7--------|----7-------------|
A|-------0-5---7--8--|-9--9----4-3-2--|-0-----0-4---5-6--|
E|-7-----------------|----------------|------------------|

G|------------------|------------------|-----------------|
D|-----------6------|----9------7------|-----------------|
A|----7-------------|-------0-5---7-8--|-9\--------------|
E|-0-----0-4---5-6--|-7----------------|-----------------|


Verse: Part 1 X1
       Part 2 X1

Chorus: X1

Solo: Verse: Part 1 X1
             Part 2 X1

Chorus: X1 
Suggest correction
comments
print report bad tab
guest
You may want to rate the tab now too:
select rating
Wanna post a correction for this tab? Suggest correction