Oops, an error
Loading. Please wait.

The Groove Tab

version 4
version 4

Whole song

by Muse
430 views 1 this week
no commentswrite comment
1 2 3 4 5
please rate
add to favorites
launch autoscroll
font size
0
reset
how to read this tab
guitar tuner
Tab Pro tools
  • play this tab
  • loop segment
  • change instrument
  • show fretboard
  • metronome
×
Best way to learn
"The Groove"
Autoscroll
slow
fast
+/-
esc
set tempo
stop
Contributor
Difficulty
intermediate
INTRO:

Without the right effects it's impossible to tab the intro.
The second part of the Intro is the same as the Verse.

______________________________________________________________________________________

VERSE:

(So here it is again...)
e|--------------------------------------------------------------------|
B|--------------------------------------------------------------------|
G|--------2----------2^------6^---------------------------------------|
D|-----4----------------------------------------7h9----------9-7------|
A|----------4-3-2-0--------4--5-6-----7^-----7h9---7h9^-----9---9-7^--|
E|--2^--2--------------------------0-------0--------------------------|

(Someone tell me...)
e|--------------------------------------------------------------------|
B|--------------------------------------------------------------------|
G|--------2----------2^------6^---------------------------------------|
D|-----4----------------------------------------7h9---------7---------|
A|----------4-3-2-0--------4--5-6-----7^-----7h9---7h9^-------9-------|
E|--2^--2--------------------------0-------0--------------------9-8^--|

_______________________________________________________________________________

CHORUS:

(So confused...)
e|------------------------------------------------------------------------|
B|------------------------------------------------------------------------|
G|-----6---6^-------------------------------------------------------------|
D|-----7-------------------6----------9^-//----12^--------------7---------|
A|--0-----4--5-6^----7^-------------------------------------------9-------|
E|----------------0------4---5-6^--7^---//-10^----12^-13^-14^-------9-8^--|


(So confused...)						d u  d u  d   d d
e|--------------------------------------------------------------X-X--X-X--X---X-X-|
B|--------------------------------------------------------------X-X--X-X--X---X-X-|
G|-----6---6^---------------------------------------------------X-X--X-X--X---X-X-|
D|-----7-------------------6----------9^-//----12^--------------X-X--X-X--X---X-X-|
A|--0-----4--5-6^----7^-----------------------------------------X-X--X-X--X---X-X-|
E|----------------0------4---5-6^--7^---//-10^----12^-13^-14^---X-X--X-X--X---X-X-|

___________________________________________________________________________

REPEAT VERSE

REPEAT CHORUS

_____________________________________________________________________________

SOLO:

I'm not sure about the solo; I believe I have the first half of it correct but seeing as 
the solo is quite distorted with
heavy effects, I wasn't able to distinguish one note from the other so I made up my own 
- I believe it sounds good with the
music even though it's not fully correct. Just warning you... So here goes:


e|---------------------------------------------------------------|
B|---------------------------------------------------------------|
G|--11^--11^---11-9----------------------------------------------|
D|------------------11-9--11^--11^---11-9-7-9--9^----9p7---------|
A|------------------------------------------------------h9p7h9^--|
E|---------------------------------------------------------------|


e|-----------------------------------------------------------|
B|-----------------------------------------------------------|
G|-----------------------------------------------------------|
D|--7^--7^---7---7-9//11^--11^---11-9-7-9--9^----9p7---------|
A|-------------9------------------------------------h9p7h9^--|
E|-----------------------------------------------------------|

_________________________________________________________________________________

CHORUS:

(So confused...)
e|------------------------------------------------------------------------|
B|------------------------------------------------------------------------|
G|-----6---6^-------------------------------------------------------------|
D|-----7-------------------6----------9^-//----12^--------------7---------|
A|--0-----4--5-6^----7^-------------------------------------------9-------|
E|----------------0------4---5-6^--7^---//-10^----12^-13^-14^-------9-8^--|


(So confused...)						 (Palm Mute......)
e|---------------------------------------------------------------------------------|
B|---------------------------------------------------------------------------------|
G|-----6---6^----------------------------------------------------------------------|
D|-----7-------------------6----------9^-//----12^---------------------------------|
A|--0-----4--5-6^----7^------------------------------------------------------------|
E|----------------0------4---5-6^--7^---//-10^----12^-13^-14^----12-10^--\\----2^--|

______________________________________________________________________________________
comments
We did not receive enough feedback on this tab! Please rate:
print report bad tab
1 2 3 4 5
I want to post or [tab]
guest
You may want to rate the tab now too:
select rating
Please do not post tabs as comments. Select "correction" instead!