Oops, an error
Loading. Please wait.

The Small Print Tab

version 1
version 1

Whole song

Interactive

by Muse
10,455 views 1 this week
13 commentsread comments
1 2 3 4 5
x 4
add to favorites
launch autoscroll
font size
0
reset
how to read this tab
guitar tuner
Autoscroll
slow
fast
+/-
esc
set tempo
stop
Help us to improve Ultimate-Guitar.com Take our survey!
×
Author
tabbed by leo bwotkins@blueyonder.co.uk

probaby the best album track off absolution.

DROP D TUNING BECAUSE OF VERSE

intro

|-----------------------------|   cant be bothered to say how many times
|-----------------------------|     this riff is played, but it's a lot.
|--------7---------------7----|
|-----------------------------|
|-8-9-8-9--9-8-9-8-9-8-9------|
|-----------------------------|

verse

|---------------------------------------------------------|
|---------------------------------------------------------|
|-7-7-7-7-7-7-7-7-7-7-7-7-9-9-9-9-11-11-11-11-11-11-11-11-|
|---------------------------------------------------------|block out
|-5-5-5-5-5-5-5-5-5-5-5-5-7-7-7-7-9--9--9--9--9--9--9--9--|
|---------------------------------------------------------|

|-------------------------------------------------------------------|
|-------------------------------------------------------------------|
|-12-12-12-12-14-14-14-14-16x16x16x16x16x16x18x16x16x16x16x16x15~~~~|
|-------------------------------------------------------------------| X2
|-10-10-10-10-12-12-12-12-14x14x14x14x14x14x16x14x14x14x14x14x------|
|-------------------------------------------------------------------|
                                                           on second time
                                                          do a treelo bend
                                                           on 15th fret

chorus (heavy)

palm mute

remember drop d!

|-----------------------------------------------------------------|
|-----------------------------------------------------------------|
|-4-4-4-4-4-4-4-4-------------------------------------------------|
|-4-4-4-4-4-4-4-4-4-4-4-4-4-4-4-4-0-0-0-0-0-0-0-0-4-4-4-4-4-4-4-4-|x2
|-2-2-2-2-2-2-2-2-4-4-4-4-4-4-4-4-0-0-0-0-0-0-0-0-4-4-4-4-4-4-4-4-|
|-----------------4-4-4-4-4-4-4-4-0-0-0-0-0-0-0-0-4-4-4-4-4-4-4-4-|

without palm mute
|--------------------------------------------------------|
|--------------------------------------------------------|
|9-9-9-9-9-9-9-9-11-11-11-11-11-11-11-11-4-4-4-4-4-4-4-4-|
|9-9-9-9-9-9-9-9-11-11-11-11-11-11-11-11-4-4-4-4-4-4-4-4-|
|7-7-7-7-7-7-7-7-9--9--9--9--9--9--9--9--2-2-2-2-2-2-2-2-|
|--------------------------------------------------------|

your wrist hurting yet?

|------------------------------------------------|
|------------------------------------------------|
|------------------------------------------------|
|0-0-0-0-0-0-0-0-4-4-4-4-4-4-4-4-4-4-4-4-4-4-4-4-|
|0-0-0-0-0-0-0-0-4-4-4-4-4-4-4-4-4-4-4-4-4-4-4-4-|
|0-0-0-0-0-0-0-0-4-4-4-4-4-4-4-4-4-4-4-4-4-4-4-4-|


|--------------------------------------------------------|
|--------------------------------------------------------|
|11-11-11-11-11-11-11-11-----------------7-7-7-7-7-7-7-7-|
|11-11-11-11-11-11-11-11-7-7-7-7-7-7-7-7-7-7-7-7-7-7-7-7-|hold chord
|9--9--9--9--9--9--9--9--7-7-7-7-7-7-7-7-5-5-5-5-5-5-5-5-|
|------------------------7-7-7-7-7-7-7-7-----------------|

it's all there, work the order out

hope it's right
Suggest correction
comments
print report bad tab
13 comments total. Showing first comments.
0 reply
jpatrick 31 Jul 10, 2006 06:28 AM

"probaby the best album track off absolution."

You're joking, they chose this track over Fury, which is one thousand times better. And there much better tracks on (Hysteria, TIRO, ...)

0 reply
yawn 182 Jul 10, 2006 09:27 AM

^ That's your opinion ;)

0 reply
Leo_Watkins 121 Jul 10, 2006 10:24 AM

i meant album track, not single

guest
You may want to rate the tab now too:
select rating
Wanna post a correction for this tab? Suggest correction