Oops, an error
Loading. Please wait.

The Small Print Tab

version 2
version 2

Whole song

Interactive

by Muse
42,465 views 9 this week
2 commentsread comments
1 2 3 4 5
x 10
add to favorites
×
Save as Personal and add changes to this tab that will be seen only by you. Learn more ›
×
You can save this tab as Personal to edit and correct it or add notes. All changes will be seen only by you. Learn more »
save as personal
new!
launch autoscroll
font size
0
reset
how to read this tab
guitar tuner
backing track
0:00
0:00
Autoscroll
slow
fast
+/-
esc
set tempo
stop
Author
Tuning
D A D G B E
Drop-D tuning - e B G D A D

[Intro]
e|----------------------------------------|
B|----------3-----------------------------|
G|----------------------------------------|
D|-3-4-3-4-----4-3-4----------------------|
A|----------------------------------------|
D|----------------------------------------|  (x12)

[Verse]
e|----------------------------------------|
B|----------------------------------------|
G|-7-------9----11------12-------14-------|
D|-0-------0-----0-------0--------0-------|
A|-5-(x12)-7-(x4)9-(x8)-10-(x4)-12-(x4)---| 
D|-0--------------------------------------|

e|----------------------------------------|
B|----------------------------------------|
G|-16------18--16-16------15--------------|
D|--0--------------0-------0--------------|
A|-14-(x12)-------14-(x8)-13-(x8)---------|
D|----------------------------------------|  (x2)

(On the last chord on the last time played 
use vibrato on G - 15 and bend.)

[Instrumental]
e|----------------------------------------|
B|----------3-----------------------------|
G|----------------------------------------|
D|-3-4-3-4-----4-3-4----------------------|
A|----------------------------------------|
D|----------------------------------------|  (x4)

[Pre-Chorus]
e|-2-----------------------------------|
B|-2-----------------------------------|
G|-4----4-4-4-4------------------------|
D|-4----4-4-4-4-4-4-4-4-4-4-4-4--------|
A|-2----2-2-2-2-4-4-4-4-4-4-4-4--------|
D|--------------4-4-4-4-4-4-4-4--------|
        * * * * * * * * * * * *
e|----------------------------------------|
B|----------------------------------------|
G|----------------------------------------|
D|-0-0-0-0-0-0-0-0-4-4-4-4-4-4-4-4--------|
A|-0-0-0-0-0-0-0-0-4-4-4-4-4-4-4-4--------|
D|-0-0-0-0-0-0-0-0-4-4-4-4-4-4-4-4--------|  (x2)  
   * * * * * * * * * * * * * * * *         

[Chorus]
e|------------------------------------------|
B|------------------------------------------|
G|-9-9-9-9-9-9-9-9-11-11-11-11-11-11-11-11--|
D|-9-9-9-9-9-9-9-9-11-11-11-11-11-11-11-11--|
A|-7-7-7-7-7-7-7-7-9--9--9--9--9--9--9--9---|
D|------------------------------------------|

e|-2-----------------------------------|
B|-2-----------------------------------|
G|-4---4-4-4-4-7-7-7-7-7-7-7-7---------|
D|-4---4-4-4-4-7-7-7-7-7-7-7-7---------|
A|-2---2-2-2-2-5-5-5-5-5-5-5-5---------|
D|-------------0-0-0-0-0-0-0-0---------|
       * * * * * * * * * * * *

e|----------------------------------------|
B|----------------------------------------|
G|----------------------------------------|
D|-4-4-4-4-4-4-4-4-4-4-4-4-4-4-4-4--------|
A|-4-4-4-4-4-4-4-4-4-4-4-4-4-4-4-4--------|
D|-4-4-4-4-4-4-4-4-4-4-4-4-4-4-4-4--------|
   * * * * * * * * * * * * * * * *

e|---------------------------------------|
B|---------------------------------------|
G|-9-9-9-9-9-9-9-9-----------------------|
D|-9-9-9-9-9-9-9-9--7-7-7-7-7-7-7-7------|
A|-7-7-7-7-7-7-7-7--7-7-7-7-7-7-7-7------|
D|------------------7-7-7-7-7-7-7-7------|

e|----------------------------------------|
B|----------------------------------------|
G|-11---------12-------11^ gradually bend-|
D|-11---------12-----------and release----|
A|--9-(x16)---10-(x16)--------------------|
D|----------------------------------------|

[Verse]
e|----------------------------------------|
B|----------------------------------------|
G|-7-------9----11------12-------14-------|
D|-0-------0-----0-------0--------0-------|
A|-5-(x12)-7-(x4)9-(x8)-10-(x4)-12-(x4)---| 
D|-0--------------------------------------|

e|----------------------------------------|
B|----------------------------------------|
G|-16------18--16-16------15--------------|
D|--0--------------0-------0--------------|
A|-14-(x12)-------14-(x8)-13-(x8)---------|
D|----------------------------------------|  (x2)

[Pre-Chorus]
e|-2-----------------------------------|
B|-2-----------------------------------|
G|-4----4-4-4-4------------------------|
D|-4----4-4-4-4-4-4-4-4-4-4-4-4--------|
A|-2----2-2-2-2-4-4-4-4-4-4-4-4--------|
D|--------------4-4-4-4-4-4-4-4--------|
        * * * * * * * * * * * *
e|----------------------------------------|
B|----------------------------------------|
G|----------------------------------------|
D|-0-0-0-0-0-0-0-0-4-4-4-4-4-4-4-4--------|
A|-0-0-0-0-0-0-0-0-4-4-4-4-4-4-4-4--------|
D|-0-0-0-0-0-0-0-0-4-4-4-4-4-4-4-4--------|  (x2)  
   * * * * * * * * * * * * * * * *         

[Chorus]
e|------------------------------------------|
B|------------------------------------------|
G|-9-9-9-9-9-9-9-9-11-11-11-11-11-11-11-11--|
D|-9-9-9-9-9-9-9-9-11-11-11-11-11-11-11-11--|
A|-7-7-7-7-7-7-7-7-9--9--9--9--9--9--9--9---|
D|------------------------------------------|

e|-2-----------------------------------|
B|-2-----------------------------------|
G|-4---4-4-4-4-7-7-7-7-7-7-7-7---------|
D|-4---4-4-4-4-7-7-7-7-7-7-7-7---------|
A|-2---2-2-2-2-5-5-5-5-5-5-5-5---------|
D|-------------0-0-0-0-0-0-0-0---------|
       * * * * * * * * * * * *

e|----------------------------------------|
B|----------------------------------------|
G|----------------------------------------|
D|-4-4-4-4-4-4-4-4-4-4-4-4-4-4-4-4--------|
A|-4-4-4-4-4-4-4-4-4-4-4-4-4-4-4-4--------|
D|-4-4-4-4-4-4-4-4-4-4-4-4-4-4-4-4--------|
   * * * * * * * * * * * * * * * *

e|---------------------------------------|
B|---------------------------------------|
G|-9-9-9-9-9-9-9-9-----------------------|
D|-9-9-9-9-9-9-9-9--7-7-7-7-7-7-7-7------|
A|-7-7-7-7-7-7-7-7--7-7-7-7-7-7-7-7------|
D|------------------7-7-7-7-7-7-7-7------|

e|----------------------------------------|
B|----------------------------------------|
G|-11---------12-------11^ gradually bend-|
D|-11---------12-----------and release----|
A|--9-(x16)---10-(x16)--------------------|
D|----------------------------------------|

[Instrumental]
e|----------------------------------------|
B|----------3-----------------------------|
G|----------------------------------------|
D|-3-4-3-4-----4-3-4----------------------|
A|----------------------------------------|
D|----------------------------------------|  (x16)

(Play the pre-chorus and chorus as normal apart from 
Don't use palm-mute just strum really fast, using
The same chords as before. However, there is a change
In chords on the second part of the chorus which you
Play like this)

e|---------------------------------------|
B|---------------------------------------|
G|-9-9-9-9-9-9-9-9-----------------------|
D|-9-9-9-9-9-9-9-9--7-7-7-7-7-7-7-7------|
A|-7-7-7-7-7-7-7-7--7-7-7-7-7-7-7-7------|
D|------------------7-7-7-7-7-7-7-7------|

e|----------------------------------------|
B|----------------------------------------|
G|-7-7-7-7-7-7-7-7------------------------|
D|-7-7-7-7-7-7-7-7-4-4-4-4-4-4-4-4--------|
A|-5-5-5-5-5-5-5-5-4-4-4-4-4-4-4-4--------|
D|-----------------4-4-4-4-4-4-4-4--------|

e|----------------------------------------|
B|----------------------------------------|
G|----------------------------------------|
D|-5-5-5-5-5-5-5-5-5-5-5-5-5-5-5-5--------|
A|-5-5-5-5-5-5-5-5-5-5-5-5-5-5-5-5--------|
D|-5-5-5-5-5-5-5-5-5-5-5-5-5-5-5-5--------|

e|----------|
B|----------|
G|----------|
D|--9-------|
A|--9-------|
D|--9-------|
Suggest correction
comments
print report bad tab
2 comments total.
+1 reply
Schmickles 10 Dec 14, 2003 07:00 PM

Yeah, just wanna say i know my own work when i see it
Don't rip my work off again please, i gave musclemuse.com permission to use it not you.

0 reply
Paul Lambeth 660 Mar 29, 2007 02:56 PM

Well, I liked it, but the comment before made me realise it's pathetic, don't copy other people's work.

guest
You may want to rate the tab now too:
select rating
Wanna post a correction for this tab? Suggest correction