Oops, an error
Loading. Please wait.

The Small Print Bass Tab

version 3
version 3

Whole song

Interactive

by Muse
5,416 views 1 this week
5 commentsread comments
1 2 3 4 5
x 5
add to favorites
launch autoscroll
font size
0
reset
guitar tuner
Autoscroll
slow
fast
+/-
esc
set tempo
stop
Help us to improve Ultimate-Guitar.com Take our survey!
×
Author
-------------------------------------------------------------------------------
			     THE SMALL PRINT - Muse
-------------------------------------------------------------------------------

Tabbed By : Kevin

Tuning:Drop D

intro: guitar plays then bass comes in with this
G|-4-4-4-4-4-4-4-4-------------------------------------------------|
D|-----------------4-4-4-4-4-4-4-4-0-0-0-0-0-0-0-0-4-4-4-4-4-4-4-4-|x2
A|-----------------------------------------------------------------|
D|-----------------------------------------------------------------|

verse: play entire thing 2x
G|-----------------------------------------------------------------|
D|---------------------------------------------------------4-4-4-4-|
A|-2-2-2-2-2-2-2-2-2-2-2-2-4-4-4-4-5-5-5-5-5-5-5-5-5-5-5-5---------|
D|-----------------------------------------------------------------|

G|-----------------------------------------------------------------|
D|-5-5-5-5-5-5-5-5-5-5-5-5-4-4-4-4-2-2-2-2-2-2---------------------|
A|-------------------------------------------------0-0-0-0-0-0-0-0-|
D|---------------------------------------------2-2-----------------|

pre-chorus:
G|-4-4-4-4-4-4-4-4-------------------------------------------------|
D|-----------------4-4-4-4-4-4-4-4-0-0-0-0-0-0-0-0-4-4-4-4-4-4-4-4-|
A|-----------------------------------------------------------------|
D|-----------------------------------------------------------------|

chorus:
G|-----------------------------------------------------------------|
D|-----------------------------------------------------------------|x2
A|-2-------2-2-2-2-------------------------------------------------|
D|-----------------4-4-4-4-4-4-4-4-0-0-0-0-0-0-0-0-4-4-4-4-4-4-4-4-|

G|-----------------------------------------------------------------|
D|-2-2-2-2-2-2-2-2-4-4-4-4-4-4-4-4---------------------------------|
A|---------------------------------2-------2-2-2-2-----------------|
D|-------------------------------------------------0-0-0-0-0-0-0-0-|

G|-----------------------------------------------------------------|
D|---------------------------------2-2-2-2-2-2-2-2-----------------|
A|-------------------------------------------------0-0-0-0-0-0-0-0-|
D|-4-4-4-4-4-4-4-4-4-4-4-4-4-4-4-4---------------------------------|

G|-----------------------------------------------------------------|
D|-0-0-0-0-0-0-0-0-0-0-0-0-0-0-0-0-5-5-5-5-5-5-5-5-5-5-5-5-5-5-5-5-|
A|-----------------------------------------------------------------|
D|-----------------------------------------------------------------|

G|---------------------------------|
D|-5-5-5-5-5-5-5-5-5-5-5-5-5-5-5-5-|
A|---------------------------------|
D|---------------------------------|

verse: play entire thing 3x
G|-----------------------------------------------------------------|
D|---------------------------------------------------------4-4-4-4-|
A|-2-2-2-2-2-2-2-2-2-2-2-2-4-4-4-4-5-5-5-5-5-5-5-5-5-5-5-5---------|
D|-----------------------------------------------------------------|

G|-----------------------------------------------------------------|
D|-5-5-5-5-5-5-5-5-5-5-5-5-4-4-4-4-2-2-2-2-2-2---------------------|
A|-------------------------------------------------0-0-0-0-0-0-0-0-|
D|---------------------------------------------2-2-----------------|

chorus:
G|-----------------------------------------------------------------|
D|-----------------------------------------------------------------|x2
A|-2-------2-2-2-2-------------------------------------------------|
D|-----------------4-4-4-4-4-4-4-4-0-0-0-0-0-0-0-0-4-4-4-4-4-4-4-4-|

G|-----------------------------------------------------------------|
D|-2-2-2-2-2-2-2-2-4-4-4-4-4-4-4-4---------------------------------|
A|---------------------------------2-------2-2-2-2-----------------|
D|-------------------------------------------------0-0-0-0-0-0-0-0-|

G|-----------------------------------------------------------------|
D|---------------------------------2-2-2-2-2-2-2-2-----------------|
A|-------------------------------------------------0-0-0-0-0-0-0-0-|
D|-4-4-4-4-4-4-4-4-4-4-4-4-4-4-4-4---------------------------------|

G|-----------------------------------------------------------------|
D|-0-0-0-0-0-0-0-0-0-0-0-0-0-0-0-0-5-5-5-5-5-5-5-5-5-5-5-5-5-5-5-5-|
A|-----------------------------------------------------------------|
D|-----------------------------------------------------------------|

G|---------------------------------|
D|-5-5-5-5-5-5-5-5-5-5-5-5-5-5-5-5-|
A|---------------------------------|
D|---------------------------------|

wait while guitar plays

break:
G|-4-4-4-4-4-4-4-4-------------------------------------------------|
D|-----------------4-4-4-4-4-4-4-4-0-0-0-0-0-0-0-0-4-4-4-4-4-4-4-4-|x2
A|-----------------------------------------------------------------|
D|-----------------------------------------------------------------|

chorus:
G|-----------------------------------------------------------------|
D|-----------------------------------------------------------------|x2
A|-2-2-2-2-2-2-2-2-------------------------------------------------|
D|-----------------4-4-4-4-4-4-4-4-0-0-0-0-0-0-0-0-4-4-4-4-4-4-4-4-|

G|-----------------------------------------------------------------|
D|-2-2-2-2-2-2-2-2-4-4-4-4-4-4-4-4---------------------------------|
A|---------------------------------2-2-2-2-2-2-2-2-----------------|
D|-------------------------------------------------0-0-0-0-0-0-0-0-|

G|-----------------------------------------------------------------|
D|---------------------------------2-2-2-2-2-2-2-2-----------------|
A|-------------------------------------------------0-0-0-0-0-0-0-0-|
D|-4-4-4-4-4-4-4-4-4-4-4-4-4-4-4-4---------------------------------|

G|-----------------------------------------------------------------|
D|-0-0-0-0-0-0-0-0-0-0-0-0-0-0-0-0-5-5-5-5-5-5-5-5-5-5-5-5-5-5-5-5-|
A|-----------------------------------------------------------------|
D|-----------------------------------------------------------------|

G|------------------------------------------|
D|-5-5-5-5-5-5-5-5-5-5-5-5-5-5-5-5----------|
A|---------------------------------2--------|
D|------------------------------------------|

| /  slide up
| \  slide down
| h  hammer-on
| p  pull-off
| ~  vibrato
| +  harmonic
| x  Mute note
===============================================================================
Suggest correction
comments
print report bad tab
5 comments total. Showing first comments.
-1 reply
rafa853 10 Oct 19, 2013 10:37 PM

verse: play entire thing 2x
G|-----------------------------------------------------------------|
D|---------------------------------------------------------4-4-4-4-|
A|-2-2-2-2-2-2-2-2-2-2-2-2-4-4-4-4-5-5-5-5-5-5-5-5-5-5-5-5---------|
D|-----------------------------------------------------------------|

G|-----------------------------------------------------------------|
D|-5-5-5-5-5-5-5-5-5-5-5-5-4-4-4-4-2-2-2-2-2-2-----4-4-4-4-4-4-4-4-|
A|-----------------------------------------------------------------|
D|---------------------------------------------2-2-----------------|

-1 reply
rafa853 10 Oct 19, 2013 10:41 PM

at the end:

G|------------------------------------------|
D|-5-5-5-5-5-5-5-5-5-5-5-5-5-5-5-5----------|
A|------------------------------------------|
D|---------------------------------9\-------|

+1 reply
MarianMUSEr 33 Mar 09, 2015 12:16 PM

I think it's almost correct :)
But Chris plays at the end of the verse thing something like this in my opinion:

verse: play entire thing 2x
G|-----------------------------------------------------------------|
D|---------------------------------------------------------4-4-4-4-|
A|-2-2-2-2-2-2-2-2-2-2-2-2-4-4-4-4-5-5-5-5-5-5-5-5-5-5-5-5---------|
D|-----------------------------------------------------------------|

G|-----------------------------------------------------------------|
D|-5-5-5-5-5-5-5-5-5-5-5-5-4-4-4-4-2-2-2-2-2-2---------------------|
A|-------------------------------------------------------------0-0-|
D|---------------------------------------------2-2-4-4-4-4-4-4-----|

guest
You may want to rate the tab now too:
select rating
Wanna post a correction for this tab? Suggest correction