Oops, an error
Loading. Please wait.

The Small Print Bass Tab

version 4
version 4

Whole song

Interactive

1,043 views 1 this week
1 commentread comment
1 2 3 4 5
x 4
add to favorites
launch autoscroll
font size
0
reset
guitar tuner
×
Best way to learn
"The Small Print"
Autoscroll
slow
fast
+/-
esc
set tempo
stop
Author
Difficulty
Tuning
  follow
novice
D A D G
Song: The Small Print
Artist: Muse
Tabbed by: Wolsten-Pilk

I've been trying to tab this for a while now so im pretty sure that this is close to
perfect, been watching Chris Wolstenholme's finger's like a hawk!
Have fun.

Intro: X2
G|--------------------------------------------|
D|--------------------------------------------|
A|----22222222--------------------------------|
D|------------444444440000000044444444--------|



Verse: X2
G|--------------------------------------------------------------|
D|--------------------------22224444555555555555444422222222----|
A|--222222222222444455555555------------------------------------|
D|--------------------------------------------------------------|

G|--------------|
D|--------------|
A|--------------|
D|-44444444-----|

Pre-Chorus: X1
G|--------------------------------------------|
D|--------------------------------------------|
A|--22222222----------------------------------|
D|----------444444440000000044444444----------|

Chorus:
G|------------------------------------------|
D|------------------------------------------|
A|--2--2222---------------------------------|
D|---------444444440000000044444444---------|


G|------------------------------------------|
D|------------------------------------------|
A|--2--2222---------------------------------|
D|---------444444440000000044444444---------|

G|------------------------------------------------------|
D|------------------------------------------------------|
A|--7777777799999999222222------------------------------|
D|------------------------000000004444444444444444------|

G|---------------------------------------------------------------------|
D|---------------------------------------------------------------------|
A|--777777770000000055555555-------------------------------------------|
D|--------------------------4444444455555555555555555555555555555555---|

Verse: X3
G|------------------------------------------------------------------|
D|------------------------------22224444555555555555444422222222----|
A|--2222222222224444555555555555------------------------------------|
D|------------------------------------------------------------------|

G|--------------|
D|--------------|
A|--------------|
D|-44444444-----|

Chorus:
G|------------------------------------------|
D|------------------------------------------|
A|--2--2222---------------------------------|
D|---------444444440000000044444444---------|


G|------------------------------------------|
D|------------------------------------------|
A|--2--2222---------------------------------|
D|---------444444440000000044444444---------|

G|------------------------------------------------------|
D|------------------------------------------------------|
A|--7777777799999999222222------------------------------|
D|----------------------000000004444444444444444--------|

G|---------------------------------------------------------------------|
D|---------------------------------------------------------------------|
A|--777777770000000055555555-------------------------------------------|
D|--------------------------4444444455555555555555555555555555555555---|

 STOP!
There's no bass when Matt plays the riff for a bit, you could add some slides, or just
head bang like Chris! The bass comes in half way through Matt playing the riff!

Pre-Chorus: X2
G|--------------------------------------------|
D|--------------------------------------------|
A|--22222222----------------------------------|
D|----------444444440000000044444444----------|

Chorus:
G|------------------------------------------|
D|------------------------------------------|
A|--2--2222---------------------------------|
D|---------444444440000000044444444---------|


G|------------------------------------------|
D|------------------------------------------|
A|--2--2222---------------------------------|
D|---------444444440000000044444444---------|

G|------------------------------------------------------|
D|------------------------------------------------------|
A|--7777777799999999222222------------------------------|
D|------------------------000000004444444444444444------|

G|---------------------------------------------------------------------|
D|---------------------------------------------------------------------|
A|--777777770000000055555555-------------------------------------------|
D|--------------------------4444444455555555555555555555555555555555---|

Ending:

G|---------------------------------------------------|
D|---------------------------------------------------|
A|---------------------------------------------------|
D|-9(hold it, then slide down)-----------------------|

Have Fun, it's a great song to play! The other tabs are incorrect slightly, not that
mine is perfect but still its pretty close to it, listen out for the rhythm in the chorus
though, Happy Head Banging like Chris, if you don't wake up with a sore and stiff neck 
then you haven't head banged hard enough!
Suggest correction
comments
print report bad tab
1 comment total.
0 reply
panda92 139 May 21, 2013 12:19 AM

Most correct tab I've seen, excellent job, thank you! :D

guest
You may want to rate the tab now too:
select rating
Wanna post a correction for this tab? Suggest correction