Oops, an error
Loading. Please wait.

The Small Print Tab

version 4
version 4

Whole song

Interactive

by Muse
54,090 views 30 this week
5 commentsread comments
1 2 3 4 5
excellent!
x 30
add to favorites
launch autoscroll
font size
0
reset
how to read this tab
guitar tuner
Autoscroll
slow
fast
+/-
esc
set tempo
stop
Help us to improve Ultimate-Guitar.com Take our survey!
×
Difficulty
intermediate
                        The Small Print


                                                  Muse
Matthew Bellamy Lead
Tabbed By JAMES DONALD ļ


Main riff

E||--------------------------|
B||--------------3-----------|
G||--------------------------|x12
D||--3--4--3--4-----4--3--4--|
A||--------------------------|
D||--------------------------|


--------------------------|--------------------------|
--------------------------|--------------------------|
--7-----7-----7-----7-----|--7-----7-----9-----9-----|
--------------------------|--------------------------|
-----5-----5-----5-----5--|-----5-----5-----7-----7--|
--------------------------|--------------------------|

------------------------------|
------------------------------|
--11-----11-----11-----11-----|
------------------------------|
------9------9------9------9--|
------------------------------|

----------------------------------|
----------------------------------|
--12------12------14------14------|
----------------------------------|
------10------10------12------12--|
----------------------------------|

----------------------------------|
----------------------------------|
--16------16------16------16------|
----------------------------------|
------14------14------14------14--|
----------------------------------|

----------------------------------|
----------------------------------|
--16------16------18------16------|
----------------------------------|
------14------16------14------14--|
----------------------------------|

----------------------------------|
----------------------------------|
--16------16------16------16------|
----------------------------------|
------14------14------14------13--|
----------------------------------|

--------------------------------|
--------------------------------|x2 and then
--15------15------15------15/---|
--------------------------------|
------13------13------13--------|
--------------------------------|


--------------------------|
--------------------------|
--15--15r---15r---15/-----|
--------------------------|
--------------------------|
--------------------------|

Main riff x3


-------------------------|
-------------------------|
--3--4--3--4--3--4--3/---|
-------------------------|
-------------------------|

Chorus

-----------------------|--------------------------|
-----------------------|--------------------------|
--4--------4--4--4--4--|--------------------------|
--4--------4--4--4--4--|--4--4--4--4--4--4--4--4--|
--2--------2--2--2--2--|--4--4--4--4--4--4--4--4--|
-----------------------|--4--4--4--4--4--4--4--4--|

--------------------------|--------------------------|
--------------------------|--------------------------|
--------------------------|--------------------------|
--0--0--0--0--0--0--0--0--|--4--4--4--4--4--4--4--4--|
--0--0--0--0--0--0--0--0--|--4--4--4--4--4--4--4--4--|
--0--0--0--0--0--0--0--0--|--4--4--4--4--4--4--4--4--|

-----------------------|--------------------------|
-----------------------|--------------------------|
--4--------4--4--4--4--|--------------------------|
--4--------4--4--4--4--|--4--4--4--4--4--4--4--4--|
--2--------2--2--2--2--|--4--4--4--4--4--4--4--4--|
-----------------------|--4--4--4--4--4--4--4--4--|

--------------------------|--------------------------|
--------------------------|--------------------------|
--------------------------|--------------------------|
--0--0--0--0--0--0--0--0--|--4--4--4--4--4--4--4--4--|
--0--0--0--0--0--0--0--0--|--4--4--4--4--4--4--4--4--|
--0--0--0--0--0--0--0--0--|--4--4--4--4--4--4--4--4--|

--------------------------|---------------------------------|
--------------------------|---------------------------------|
--9--9--9--9--9--9--9--9--|--11--11--11--11--11--11--11-----|
--9--9--9--9--9--9--9--9--|--11--11--11--11--11--11--11--0--|
--7--7--7--7--7--7--7--7--|--9---9---9---9---9---9---9---0--|
--------------------------|---------------------------------|

-----------------------|--------------------------|
-----------------------|--------------------------|
-----------------------|--------------------------|
--4--------4--4--4--4--|--------------------------|
--2--------2--2--2--2--|--0--0--0--0--0--0--0--0--|
-----------------------|--0--0--0--0--0--0--0--0--|

--------------------------|--------------------------|
--------------------------|--------------------------|
--------------------------|--------------------------|
--------------------------|-----------------------0--|
--4--4--4--4--4--4--4--4--|--4--4--4--4--4--4--4--0--|
--4--4--4--4--4--4--4--4--|--4--4--4--4--4--4--4--0--|

--------------------------|--------------------------|
--------------------------|--------------------------|
--9--9--9--9--9--9--9--9--|--------------------------|
--9--9--9--9--9--9--9--9--|--7--7--7--7--7--7--7--7--|
--7--7--7--7--7--7--7--7--|--7--7--7--7--7--7--7--7--|
--------------------------|--7--7--7--7--7--7--7--7--|

--------------------------|--------------------------|
--------------------------|--------------------------|
--7--7--7--7--7--7--7--7--|--7--7--7--7--7--7--7--7--|
--7--7--7--7--7--7--7--7--|--7--7--7--7--7--7--7--7--|
--5--5--5--5--5--5--5--5--|--5--5--5--5--5--5--5--5--|
--------------------------|--------------------------|

----------------------------------|
----------------------------------|
--12--12--12--12--12--12--12--12--|
----------------------------------|
--10--10--10--10--10--10--10--10--|
----------------------------------|

----------------------------------|
----------------------------------|
--12--12--12--12--14--14--14--14--|
----------------------------------|
--10--10--10--10--12--12--12--12--|
----------------------------------|

----------------------------------|
----------------------------------|
--15--15--15--15--15--15--15--15--|
----------------------------------|
--13--13--13--13--13--13--13--13--|
----------------------------------|

----------------------------------|-------------------|
----------------------------------|-------------------|
--15--15--15--15--15--15--15--15--|-------------------|
----------------------------------|-------------------|
--13--13--13--13--13--13--13--13--|-------------------|
----------------------------------|--9/---------------|

-------------------|--------------------|
----------1/-------|----------13~-------|
-------------------|--------------------|
-------------------|--------------------|
-------------------|--------------------|
----------x--------|--------------------|

----------------------------|--------------------|
----------------------------|--12----------------|
------11--11--12--12--14----|--14b---------------|
----------------------------|--------------------|
----------------------------|--------------------|
----------------------------|--------------------|

------------------|----------------------|--------------------|
------------------|----------------------|--------------------|
------------------|------------------15--|----------------15/-|
------------------|----------------------|--------------------|
------------------|--12------------------|--------------------|
------------------|----------------------|--------------------|



Second riff x2




--------------------------|
--------------------------|
--15--15r---15r---15/-----|
--------------------------|
--------------------------|
--------------------------|

Chorus x 1

Main riff x16

Chorus x 1

End on

----------------------------------|-------------------|
----------------------------------|-------------------|
--15--15--15--15--15--15--15--15--|-------------------|
----------------------------------|--9/---------------|
--13--13--13--13--13--13--13--13--|--9/---------------|
----------------------------------|--9/---------------|

ITs almost right theres a few bits in the middle that i needa fix up
Suggest correction
comments
print report bad tab
5 comments total. Showing first comments.
-1 reply
MaXiMuse 952 wrote on June 9 2007, 11:47 am

Tabbed by the tabbook!

+4 reply
FinderofNemo 327 wrote on August 2 2007, 03:57 am

Yeah, but at least that means it's right

+3 reply
andrewofhackney 157 wrote on November 24 2007, 09:37 am

i take it its drop D then?

guest
You may want to rate the tab now too:
select rating
Wanna post a correction for this tab? Suggest correction