Oops, an error
Loading. Please wait.
We have an official Time Is Running Out tab made by UG professional guitarists. Check out the tab »
×
by Muse
96,432 views 42 this week
8 commentsread comments
1 2 3 4 5
x 9
add to favorites
×
Save as Personal and add changes to this tab that will be seen only by you. Learn more ›
×
You can save this tab as Personal to edit and correct it or add notes. All changes will be seen only by you. Learn more »
save as personal
new!
launch autoscroll
font size
0
reset
how to read this tab
guitar tuner
backing track
0:00
0:00
Autoscroll
slow
fast
+/-
esc
set tempo
stop
Author
Tuning: Standard (EADGBe)

[Intro] (Bass)
G|-------------------|---------------------|----------------------|
D|-------------------|---------------------|----------------------|
A|-------------------|---------------------|----------------------|
E|--5-5-8-5-5-8-8-5--|--7-7-5-7-7-5-10-11--|--0-0-12-0-0-12-12-0--|

G|-------------------|
D|-------------------|
A|------3-----5-5----|  (Play as many times needed)
E|--1-1---1-3-----3--|

e|--12----------11---------------12--13--10-----|
B|-----13----------13------9--12------------12--| (This part is done 
G|--------14----------14------------------------| a piano I think)
D|----------------------------------------------|

[Pre-Chorus]
e|------------------------------------------------------------------------|
B|------------------------------------------------------------------------|
G|--5-5-5-5-5-5-5-5----7--7--7--7--7--7--7--7-----9--9--9--9--9--9--9--9--|
D|--7-7-7-7-7-7-7-7----9--9--9--9--9--9--9--9-----10-10-10-10-10-10-10-10-|
A|--8-8-8-8-8-8-8-8----10-10-10-10-10-10-10-10----12-12-12-12-12-12-12-12-|
E|------------------------------------------------------------------------|

e|---------------------------|
B|---------------------------|
G|--7--7--7--7--7--7--7--7---|
D|--9--9--9--9--9--9--9--9---|
A|--10-10-10-10-10-10-10-10--|
E|---------------------------|

e|------------------------------------------------------------------------|
B|------------------------------------------------------------------------|
G|--5-5-5-5-5-5-5-5----7--7--7--7--7--7--7--7-----9--9--9--9--9--9--9--9--|
D|--7-7-7-7-7-7-7-7----9--9--9--9--9--9--9--9-----10-10-10-10-10-10-10-10-|
A|--8-8-8-8-8-8-8-8----10-10-10-10-10-10-10-10----12-12-12-12-12-12-12-12-|
E|------------------------------------------------------------------------|

e|--------------------------|
B|--------------------------|
G|--7--7---12-12-10-10-9-9--|
D|--9--9---9--9--9--9--9-9--|
A|--10-10--10-10-8--8--7-7--|
E|--------------------------|

[Chorus]
e|------------------------------------|
B|------------------------------------|
G|------------------------------------|
D|--3-3-3-3-3-3-3-3--5-5-5-5-5-5-5-5--|
A|--3-3-3-3-3-3-3-3--5-5-5-5-5-5-5-5--|
E|--1-1-1-1-1-1-1-1--3-3-3-3-3-3-3-3--|

e|----------------------------------------|
B|----------------------------------------|
G|----------------------------------------|
D|7-7-7-7-7-7-7-7--10-10--12-12-10-10-9-9-|
A|7-7-7-7-7-7-7-7--10-10--9--9--9--9--9-9-|
E|5-5-5-5-5-5-5-5--8--8---10-10-8--8--7-7-|

e|----------------------------------------------------------------------|
B|----------------------------------------------------------------------|
G|----------------------------------------------------------------------|
D|--3-3-3-3-3-3-3-3--5-5-5-5-5-5-5-5--7-7-7-7-7-7-7-7-------------------|
A|--3-3-3-3-3-3-3-3--5-5-5-5-5-5-5-5--7-7-7-7-7-7-7-7-------3-------5---|
E|--1-1-1-1-1-1-1-1--3-3-3-3-3-3-3-3--5-5-5-5-5-5-5-5---1-1---1-3-3---3-|

e|-----------------------------------------------------|
B|--17-13-10--16-13-10--9-12-17--9---12-17--18--15--12-|
G|-----------------------------------------------------|
D|--14-10-7---13-10-7---6-9--14--6---9--14--15--12--9--| (Fast picking!!!)
A|-----------------------------------------------------|
E|-----------------------------------------------------|

e|-------------------------------------------------|
B|-------------------------------------------------| (Guitar part)
G|-------------------------------------------------|                  
D|-------------------------------------------------| (x3)             
A|-------------------------------------3-------5---|                 
E|--5-5-8-5---7-7-5-7---0-0-12-0---1-1---1-3-3---3-|

[Pre-Chorus]
e|------------------------------------------------------------------------|
B|------------------------------------------------------------------------|
G|--5-5-5-5-5-5-5-5----7--7--7--7--7--7--7--7-----9--9--9--9--9--9--9--9--|
D|--7-7-7-7-7-7-7-7----9--9--9--9--9--9--9--9-----10-10-10-10-10-10-10-10-|
A|--8-8-8-8-8-8-8-8----10-10-10-10-10-10-10-10----12-12-12-12-12-12-12-12-|
E|------------------------------------------------------------------------|

e|---------------------------|
B|---------------------------|
G|--7--7--7--7--7--7--7--7---|
D|--9--9--9--9--9--9--9--9---|
A|--10-10-10-10-10-10-10-10--|
E|---------------------------|

e|------------------------------------------------------------------------|
B|------------------------------------------------------------------------|
G|--5-5-5-5-5-5-5-5----7--7--7--7--7--7--7--7-----9--9--9--9--9--9--9--9--|
D|--7-7-7-7-7-7-7-7----9--9--9--9--9--9--9--9-----10-10-10-10-10-10-10-10-|
A|--8-8-8-8-8-8-8-8----10-10-10-10-10-10-10-10----12-12-12-12-12-12-12-12-|
E|------------------------------------------------------------------------|

e|--------------------------|
B|--------------------------|
G|--7--7---12-12-10-10-9-9--|
D|--9--9---9--9--9--9--9-9--|
A|--10-10--10-10-8--8--7-7--|
E|--------------------------|

[Chorus]
e|------------------------------------|
B|------------------------------------|
G|------------------------------------|
D|--3-3-3-3-3-3-3-3--5-5-5-5-5-5-5-5--|
A|--3-3-3-3-3-3-3-3--5-5-5-5-5-5-5-5--|
E|--1-1-1-1-1-1-1-1--3-3-3-3-3-3-3-3--|

e|----------------------------------------|
B|----------------------------------------|
G|----------------------------------------|
D|7-7-7-7-7-7-7-7--10-10--12-12-10-10-9-9-|
A|7-7-7-7-7-7-7-7--10-10--9--9--9--9--9-9-|
E|5-5-5-5-5-5-5-5--8--8---10-10-8--8--7-7-|

e|----------------------------------------------------------------------|
B|----------------------------------------------------------------------|
G|----------------------------------------------------------------------|
D|--3-3-3-3-3-3-3-3--5-5-5-5-5-5-5-5--7-7-7-7-7-7-7-7-------------------|
A|--3-3-3-3-3-3-3-3--5-5-5-5-5-5-5-5--7-7-7-7-7-7-7-7-------3-------5---|
E|--1-1-1-1-1-1-1-1--3-3-3-3-3-3-3-3--5-5-5-5-5-5-5-5---1-1---1-3-3---3-|

e|-----------------------------------------------------|
B|--17-13-10--16-13-10--9-12-17--9---12-17--18--15--12-|
G|-----------------------------------------------------|
D|--14-10-7---13-10-7---6-9--14--6---9--14--15--12--9--| (Fast picking!!!)
A|-----------------------------------------------------|
E|-----------------------------------------------------|

e|-------------------------------------------------|
B|-------------------------------------------------| (Guitar part)
G|-------------------------------------------------|                  
D|-------------------------------------------------| (x3)             
A|-------------------------------------3-------5---|                 
E|--5-5-8-5---7-7-5-7---0-0-12-0---1-1---1-3-3---3-|

[Bridge]
e|---------------------------------------------------------------|
B|---------------------------------------------------------------|
G|---------------------------------------------------------------|
D|--7-7-7-7-7-7-7--7---14-14-14-14-14-14-15-15----------2--------|
A|--5-5-7-7-8-8-10-10--12-12-14-14-15-15-17-17--(x3)----2--(x16)-|
E|------------------------------------------------------0--------|

[Piano bit]
e|--12----8--12----8--12--------11--------11--------10-|
B|-----10-------10-------10--12----10--12----10--12----|
G|-----------------------------------------------------|

e|----7-10---7-10---7-----8----------10-7----|
B|--9------9------9-----9---10----10------8--| (x2)
G|-----------------------------10------------|

[Pre-Chorus]
e|------------------------------------------------------------------------|
B|------------------------------------------------------------------------|
G|--5-5-5-5-5-5-5-5----7--7--7--7--7--7--7--7-----9--9--9--9--9--9--9--9--|
D|--7-7-7-7-7-7-7-7----9--9--9--9--9--9--9--9-----10-10-10-10-10-10-10-10-|
A|--8-8-8-8-8-8-8-8----10-10-10-10-10-10-10-10----12-12-12-12-12-12-12-12-|
E|------------------------------------------------------------------------|

e|---------------------------|
B|---------------------------|
G|--7--7--7--7--7--7--7--7---|
D|--9--9--9--9--9--9--9--9---|
A|--10-10-10-10-10-10-10-10--|
E|---------------------------|

e|------------------------------------------------------------------------|
B|------------------------------------------------------------------------|
G|--5-5-5-5-5-5-5-5----7--7--7--7--7--7--7--7-----9--9--9--9--9--9--9--9--|
D|--7-7-7-7-7-7-7-7----9--9--9--9--9--9--9--9-----10-10-10-10-10-10-10-10-|
A|--8-8-8-8-8-8-8-8----10-10-10-10-10-10-10-10----12-12-12-12-12-12-12-12-|
E|------------------------------------------------------------------------|

e|--------------------------|
B|--------------------------|
G|--7--7---12-12-10-10-9-9--|
D|--9--9---9--9--9--9--9-9--|
A|--10-10--10-10-8--8--7-7--|
E|--------------------------|

[Chorus]
e|------------------------------------|
B|------------------------------------|
G|------------------------------------|
D|--3-3-3-3-3-3-3-3--5-5-5-5-5-5-5-5--|
A|--3-3-3-3-3-3-3-3--5-5-5-5-5-5-5-5--|
E|--1-1-1-1-1-1-1-1--3-3-3-3-3-3-3-3--|

e|----------------------------------------|
B|----------------------------------------|
G|----------------------------------------|
D|7-7-7-7-7-7-7-7--10-10--12-12-10-10-9-9-|
A|7-7-7-7-7-7-7-7--10-10--9--9--9--9--9-9-|
E|5-5-5-5-5-5-5-5--8--8---10-10-8--8--7-7-|

e|----------------------------------------------------------------------|
B|----------------------------------------------------------------------|
G|----------------------------------------------------------------------|
D|--3-3-3-3-3-3-3-3--5-5-5-5-5-5-5-5--7-7-7-7-7-7-7-7-------------------|
A|--3-3-3-3-3-3-3-3--5-5-5-5-5-5-5-5--7-7-7-7-7-7-7-7-------3-------5---|
E|--1-1-1-1-1-1-1-1--3-3-3-3-3-3-3-3--5-5-5-5-5-5-5-5---1-1---1-3-3---3-|

e|-----------------------------------------------------|
B|--17-13-10--16-13-10--9-12-17--9---12-17--18--15--12-|
G|-----------------------------------------------------|
D|--14-10-7---13-10-7---6-9--14--6---9--14--15--12--9--| (Fast picking!!!)
A|-----------------------------------------------------|
E|-----------------------------------------------------|

e|-------------------------------------------------|
B|-------------------------------------------------| (Guitar part)
G|-------------------------------------------------|                  
D|-------------------------------------------------| (x3)             
A|-------------------------------------3-------5---|                 
E|--5-5-8-5---7-7-5-7---0-0-12-0---1-1---1-3-3---3-|

[Bridge]
e|---------------------------------------------------------------|
B|---------------------------------------------------------------|
G|---------------------------------------------------------------|
D|--7-7-7-7-7-7-7--7---14-14-14-14-14-14-15-15----------2--------|
A|--5-5-7-7-8-8-10-10--12-12-14-14-15-15-17-17--(x3)----2--(x16)-|
E|------------------------------------------------------0--------|

[Outro]
e|---------------|
B|--5--5--5--5---|
G|--9--8--7--5---|
D|---------------|



************************************

| (x 
| ) 

************************************
Suggest correction
comments
print report bad tab
8 comments total. Showing first comments.
0 reply
--riv-- 10 Feb 14, 2004 07:00 PM

A great tab if you want to play the song with only one guitar.
ESPAÑA!

0 reply
tiftcte 595 Feb 17, 2004 07:00 PM

u spelled bass rong

0 reply
Tabby 20 Feb 18, 2004 07:00 PM

way to go class tab i could play it and im not a Bass player

guest
You may want to rate the tab now too:
select rating
Wanna post a correction for this tab? Suggest correction