Oops, an error
Loading. Please wait.

Time Is Running Out Tab

version 2
48,734 views 45 this week
4 commentsread comments
1 2 3 4 5
x 11
add to favorites
launch autoscroll
font size
0
reset
how to read this tab
guitar tuner
backing track
0:00
0:00
×
Best way to learn
"Time Is Running Out"
Autoscroll
slow
fast
+/-
esc
set tempo
stop
[Verse 1]
(Guit 1: mute)
(Guit 2: mute ((x2))
e|--12-------11------------12-13~-10----|
B|-----13-10----13-10-9~-12----------12-|
G|--------------------------------------|
D|--------------------------------------|
A|--------------------------------------|
E|--------------------------------------|  (x2)

[Pre-chorus 1]
(Guit 1: plays twice)
(Guit 2: mute)
e|--------------------------------------|
B|--------------------------------------|
G|--------------------------------------|
D|--33333333-55555555-77777777-55555555-|
A|--33333333-55555555-77777777-55555555-|
E|--11111111-33333333-55555555-33333333-| (x2)
  |...pm.......pm.......pm.......pm...|

(Guit 2)
e|------------|
B|------------|
G|--12-10--9--|
D|------------|
A|--10--8--7--|
E|------------|
 
[Chorus 1]
   (Guit 1)       (Guit 2)
e|--1--3---5--3-|-1--3---5-|
B|--1--3---5--3-|-1--3---5-|
G|--2--4---6--5-|-2--4---6-|
D|--3--5---7--5-|-3--5---7-|
A|--3--5---7--3-|-3--5---7-|
E|--1--3---5----|-1--3---5-| 

(Guit 1)
e|------------------|
B|------------------|
G|------------------|
D|------------------|
A|-----3--------5---|
E|-1-1---1--3-3---3-|

[Solo 1]
(Guit 2)
e|-----------------------------|
B|-----------------------------|
G|-9------8----------9-10~-7---|
D|---10-7---10-7-6~-9--------9-|
A|-----------------------------|
E|-----------------------------|

[Verse 2]
(Guit 1)
e|------------------------------------------------|
B|------------------------------------------------|
G|--2-2-5-2---4-4-2-4-------9---------------------|
D|--2-2-5-2---4-4-2-4---2-2-9-2-------------------|
A|--0-0-3-0---2-2-0-2---2-2-7-2-------3--------5--|
E|----------------------0-0---0---1-1---1--3-3---3| (x3)

[Pre-chorus 2]
(Guit 1: plays twice)
(Guit 2: mute)
e|-----------------------------------------------------------------------|
B|-----------------------------------------------------------------------|
G|-1010101010101010-1212121212121212-141414141414141414-1212121212121212-|
D|-1010101010101010-1212121212121212-141414141414141414-1212121212121212-|
A|--8-8-8-8-8-8-8-8-1010101010101010-121212121212121212-1010101010101010-|
E|-----------------------------------------------------------------------|  (x2)
  |.......pm..............pm................pm................pm.......|

(Guit 2)
e|------------|
B|------------|
G|--12-10--9--|
D|------------|
A|--10--8--7--|
E|------------|

[Chorus 2]
(Guit 1 and Guit 2)
e|--1--3---5--3----|
B|--1--3---5--3----|
G|--2--4---6--5----|
D|--3--5---7--5----|
A|--3--5---7--3----|
E|--1--3---5-------| (x2)

e|------------0--------|
B|------------0--------| 
G|--7---------2--------|
D|--7---------2--------|
A|--5---------0--------|       
E|---------------------|  (x3)
   Oh-Oh-Oh, yeah yeah yeah

e|--------|
B|--------|
G|-1------|
D|-2------|
A|-2------|
E|-0------|

[Bridge]
(Guit 1:mute)
(Guit 2: plays twice)
e|--12----12--------11----11---------10----10-----------------------|
B|----13----13--------13----13---------12----12--------13----13-----|
G|------14----14--------14----14---------13----13--------12----12---|
D|---------------------------------------------------------12----12-|
A|------------------------------------------------------------------|
E|------------------------------------------------------------------|(x2)

[Pre-chorus 3]
(Guit 1: plays twice)
(Guit 2: mute)
e|-----------------------------------------------------------------------|
B|-----------------------------------------------------------------------|
G|-1010101010101010-1212121212121212-141414141414141414-1212121212121212-|
D|-1010101010101010-1212121212121212-141414141414141414-1212121212121212-|
A|--8-8-8-8-8-8-8-8-1010101010101010-121212121212121212-1010101010101010-|
E|-----------------------------------------------------------------------|  (x2)
  |.......pm..............pm................pm................pm.......|

(Guit 2)
e|------------|
B|------------|
G|--12-10--9--|
D|------------|
A|--10--8--7--|
E|------------|

[Chorus 3]
(Guit 1 and Guit 2)
e|--1--3---5--3----|
B|--1--3---5--3----|
G|--2--4---6--5----|
D|--3--5---7--5----|
A|--3--5---7--3----|
E|--1--3---5-------|  (x2)

e|------------0--------|
B|------------0--------|
G|--7---------2--------|
D|--7---------2--------|
A|--5---------0--------|        
E|---------------------|  (x3)
   Oh-Oh-Oh, yeah yeah yeah

e|--------|
B|--------|
G|-1------|
D|-2------|
A|-2------|
E|-0------|

[Outro]
(Guit 1: mute)
(Guit 2: plays once)
e|--------------------------------------------|
B|--------------------------------------------|
G|-99999999--88888888--77777777--55555555\\\\-|
D|--------------------------------------------|
A|--------------------------------------------|
E|--------------------------------------------|


************************************

| ~  Vibrato
| \  Slide down

************************************
Suggest correction
comments
print report bad tab
4 comments total. Showing first comments.
0 reply
ChrisJ83 10 Oct 12, 2003 08:00 PM

i think there's an a minor in the chorus (4-6-6-4-4-4), not an a major...

-1 reply
Muse=Rock 30 Apr 18, 2008 01:18 AM

there is only one guitar

0 reply
lbh8579 10 Oct 14, 2013 10:17 PM

time is running out play movie -> http://www.youtube.com/watch?v=storKSJUyxU

guest
You may want to rate the tab now too:
select rating
Wanna post a correction for this tab? Suggest correction