Oops, an error
Loading. Please wait.

Time Is Running Out Tab

version 3
by Muse
190,580 views 36 this week
4 commentsread comments
1 2 3 4 5
accurate
x 22
add to favorites
launch autoscroll
font size
0
reset
how to read this tab
guitar tuner
Tab Pro tools
  • play this tab
  • loop segment
  • change instrument
  • show fretboard
  • metronome
×
Best way to learn
"Time Is Running Out"
Autoscroll
slow
fast
+/-
esc
set tempo
stop
Contributor
Muse-Time Is Running Out

(You will be the death of me...)
e|--12-------11------------12-13-10------
B|-----13-10----13-10-9-12----------(12)-
G|---------------------------------------
D|---------------------------------------
A|---------------------------------------
E|---------------------------------------

Pre chorus (Bury it...)
e|--------------|
B|--------------|
G|----------5---|
D|-3--5--7--5---|                 
A|-3--5--7--3---|
E|-1--3--5------|
PM .  .  .  .


e|----------------|
B|----------------|
G|-12--10---8-----|
D|----------------|
A|-10--8----6-----| This part is also played during the chorus, listen close and
E|----------------|   you'll hear it.
  Our time is


Chorus
e|--1--3---5--3----|
B|--1--3---5--3----|
G|--2--4---5--5----|       
D|--3--5---7--5----|
A|--3--5---7--3----|
E|--1--3---5-------|  


e|------------------|
B|------------------|
G|------------------|
D|------------------|
A|-----3--------5---|
E|-1-1---1--3-3---3-|

Mini solo before second verse (fast picking)
e|--------------------------|
B|--------------------------|
G|-9------8----------9-10-7-|
D|---10-7---10-7-6-9--------|
A|--------------------------|
E|--------------------------|


Verse 2
e|---------------------------------------------|
B|---------------------------------------------|
G|---------------------------------------------|
D|-2-2-5-2--4-4-2-4--2-2-9-2-------------------|
A|-2-2-5-2--4-4-2-4--2-2-9-2------3--------5---|
E|-0-0-3-0--2-2-0-2--0-0-7-0--1-1---1--3-3---3-|  
 (Easier if you just play the bass notes) 

Pre Chorus 2
e|---------|
B|---------|
G|--14--12-| (he might be constantly playing them or alternating between the
D|---------|                         notes, I'm not sure)
A|--12--10-|
E|---------|  X4


e|----------------|
B|----------------|
G|-12--10---9-----|
D|----------------|
A|-10--8----7-----|
E|----------------|
  Our time is



e|--1--3---5--3----|
B|--1--3---5--3----|
G|--2--4---5--5----|
D|--3--5---7--5----|
A|--3--5---7--3----|
E|--1--3---5-------|  X2


(ooh-ooh-ooh yeah yeah yeah)
E|--------0--------|                               e|-------|
B|--------0--------|                               B|-------|
G|--7-----2--------|                               G|---1---|
D|--7-----2--------|                               D|---2---|
A|--5-----0--------|                               A|---2---|
E|-----------------|      X3  On the fourth time   E|---0---|

Pre Chorus 3
e|---------|
B|---------|
G|--14--12-| (he might be constantly playing them or alternating between the
D|---------|                                              notes, I'm not sure)
A|--12--10-|
E|---------|  X4
   
e|----------------
B|----------------
G|-12--10---9-----
D|----------------
A|-10--8----7-----
E|----------------
  Our time is

e|--1--3---5--3----
B|--1--3---5--3----
G|--2--4---5--5----
D|--3--5---7--5----
A|--3--5---7--3----
E|--1--3---5-------  X2

Outro (fast picking)
e|--------------|
B|--------------|
G|-9--8--7--5---|
D|--------------|
A|--------------|
E|--------------|
comments
print report bad tab
4 comments total. Showing first comments.
0 reply
Gu1T@r_H3r0 wrote on April 21 2004, 12:00 am

the whole tab is wrong

0 reply
kapper_23 wrote on August 19 2006, 01:27 am

why exactly did you say your own tab is wrong?

0 reply
Gu1T@r_H3r0 wrote on September 13 2006, 08:46 am

Because I have become a better guitarist and realized my own mistakes. It also looks stupid because an additional comment has been mysteriously deleted.

I want to post or [tab]
guest
You may want to rate the tab now too:
select rating
Please do not post tabs as comments. Select "correction" instead!