Oops, an error
Loading. Please wait.
We have an official Time Is Running Out tab made by UG professional guitarists. Check out the tab »
×
by Muse
7,528 views 3 this week
3 commentsread comments
1 2 3 4 5
x 8
add to favorites
×
Save as Personal and add changes to this tab that will be seen only by you. Learn more ›
×
You can save this tab as Personal to edit and correct it or add notes. All changes will be seen only by you. Learn more »
launch autoscroll
font size
0
reset
how to read this tab
guitar tuner
backing track
0:00
0:00
edit
Autoscroll
slow
fast
+/-
esc
set tempo
stop
Artist: Muse    Song: Time Is Running Out       Album: Absolution  
119bpm
Tabbed by:JOEY
THIS IS REAL TAB

Intro:
  Am                Bm                E                 F        G
e|-----------------|-----------------|-----------------|-----------------|
B|-----------------|-----------------|-----------------|-----------------|
G|-----------------|-----------------|-----------------|-----------------|
D|-----------------|-----------------|-----------------|-----------------|
A|-----------------|-----------5-5-6-|-----7-----7-7---|-----3-----5-5---|
E|-5-5-8-5-5-8-8-5-|-7-7-5-7-7-------|-0-0---0-0-----0-|-1-1---1-3-----3-|

Verse:
  Am                Bm                E                 F        G
e|-----------------|-----------------|-----------------|-----------------|
B|-----------------|-----------------|-----------------|-----------------|
G|-----------------|-----------------|-----------------|-----------------|
D|-----------------|-----------------|-----------------|-----------------|
A|-----------------|-----------5-5-6-|-----7-----7-7---|-----3-----5-5---|
E|-5-5-8-5-5-8-8-5-|-7-7-5-7-7-------|-0-0---0-0-----0-|-1-1---1-3-----3-|
  i think i'm drowning...

  Am                Bm                E                 F        G
e|-----------------|-----------------|-----------------|-----------------|
B|-----------------|-----------------|-----------------|-----------------|
G|-----------------|-----------------|-----------------|-----------------|
D|-----------------|-----------------|-----------------|-----------------|
A|-----------------|-----------5-5-6-|-----7-----7-7---|-----3-----5-5---|
E|-5-5-8-5-5-8-8-5-|-7-7-5-7-7-------|-0-0---0-0-----0-|-1-1---1-3-----3-|
  you're something beautiful....

  Am                B7#5              E                 F        G
e|-----------------|-----------------|-----------------|-----------------|
B|-----------------|-----------------|-----------------|-----------------|
G|-----------------|-----------------|-----------------|-----------------|
D|-----------------|-----------------|-----------------|-----------------|
A|-----------------|-----------5-5-6-|-----7-----7-7---|-----3-----5-5---|
E|-5-5-8-5-5-8-8-5-|-7-7-5-7-7-------|-0-0---0-0-----0-|-1-1---1-3-----3-|
  you...      will   be...

  F                  G                 Am                C
e|-----------------|-----------------|-----------------|-----------------|
B|-0-0-0-1-1-1-1-1-|-1-1-3-3-1-1-0-0-|-0-0-0-1-1-1-1-1-|-1-1-3-3-1-1-0-0-|
G|-2-2-2-2-2-2-2-2-|-0-0-0-0-0-0-0-0-|-2-2-2-2-2-2-2-2-|-0-0-0-0-0-0-0-0-|
D|-3-3-3-3-3-3-3-3-|-0-0-0-0-0-0-0-0-|-2-2-2-2-2-2-2-2-|-2-2-2-2-2-2-2-2-|
A|-----------------|-----------------|-----------------|-----------------|
E|-----------------|-----------------|-----------------|-----------------|
  Palm mute__________
  bury it...

  F                 G                 Am                C
e|-----------------|-----------------|-----------------|----------------------|
B|-0-0-0-1-1-1-1-1-|-1-1-3-3-1-1-0-0-|-0-0-0-1-1-1-1-1-|----------------------|
G|-2-2-2-2-2-2-2-2-|-0-0-0-0-0-0-0-0-|-2-2-2-2-2-2-2-2-|------12-12-10-10-9-9-|
D|-3-3-3-3-3-3-3-3-|-0-0-0-0-0-0-0-0-|-2-2-2-2-2-2-2-2-|----------------------|
A|-----------------|-----------------|-----------------|------10-10--8--8-7-7-|
E|-----------------|-----------------|-----------------|----------------------|
                 ____________________| < open out       < w.dist.
  smother it....                                        and our time is...

Chorus:
  F                         G*                        Am*               C
e|-------------------------|-------------------------|-----------------|---------------------|
B|-------------------------|-------------------------|-6-6-6-5-5-5-5-5-|---------------------|
G|--9--9--9--9--9--9--9--9-|-10-10--7--7--9--9-10-10-|-5-5-5-5-5-5-5-5-|-----12-12-10-10-9-9-|
D|-10-10-10-10-10-10-10-10-|-10-10-10-10-10-10-10-10-|-7-7-7-7-7-7-7-7-|-10------------------|
A|--8--8--8--8--8--8--8--8-|-10-10-10-10-10-10-10-10-|-7-7-7-7-7-7-7-7-|-10--10-10--8--8-7-7-|
E|--8--8--8--8--8--8--8--8-|-------------------------|-5-5-5-5-5-5-5-5-|--8------------------|
  running out...

 
  F                         G*                        Am*               F*       G*
e|-------------------------|-------------------------|-----------------|-----------------|
B|-------------------------|-------------------------|-6-6-6-5-5-5-5-5-|-----------------|
G|--9--9--9--9--9--9--9--9-|-10-10--7--7--9--9-10-10-|-5-5-5-5-5-5-5-5-|---------0-0-----|
D|-10-10-10-10-10-10-10-10-|-10-10-10-10-10-10-10-10-|-7-7-7-7-7-7-7-7-|-3-3---------0---|
A|--8--8--8--8--8--8--8--8-|-10-10-10-10-10-10-10-10-|-7-7-7-7-7-7-7-7-|-----3-----------|
E|--8--8--8--8--8--8--8--8-|-------------------------|-5-5-5-5-5-5-5-5-|-1-1---1-3-3---3-|
  underground...

  Am                Bm                E                 F         G
e|-12-------8----5-|-11-------8----5-|-4-------7----12-|-13-------10----7-|
B|-----------------|-----------------|-----------------|------------------|
G|--9-------5----2-|--8-------5----2-|-1-------4-----9-|-10--------7----4-|
D|-----------------|-----------------|-----------------|------------------|
A|-----------------|-----------------|-----------------|------------------|
E|-----------------|-----------------|-----------------|------------------|
  tremolo picking_________________________________________________________|


Verse:

e|-----------------|-----------------|-----------------|-----------------|
B|-----------------|-----------------|-----------------|-----------------|
G|-----------------|-----------------|-----------------|-----------------|
D|-----------------|-----------------|-----------------|-3-3-----5-5-----|
A|-----3-----------|-----------------|-----7-----------|-----3-------5---|
E|-5-5---5-5-------|-7-7-5-7---------|-0-0---0---------|-1-1---1-3-3---3-|
  i wanted freedom...

e|-----------------|-----------------|-----------------|-----------------|
B|-----------------|-----------------|-----------------|-----------------|
G|-----------------|-----------------|-----------------|-----------------|
D|-----------------|-----------------|-----------------|-3-3-----5-5-----|
A|-----3-----------|-----------------|-----7-----------|-----3-------5---|
E|-5-5---5-5-------|-7-7-5-7---------|-0-0---0---------|-1-1---1-3-3---3-|
  now that you know i'm trapped...

e|-----------------|-----------------|-----------------|-----------------|
B|-----------------|-----------------|-----------------|-----------------|
G|-----------------|-----------------|-----------------|-----------------|
D|-----------------|-----------------|-----------------|-----------------|
A|-----3-----------|-----------------|-----7-----------|-----3-------5---|
E|-5-5---5-5-------|-7-7-5-7---------|-0-0---0---------|-1-1---1-3-3---3-|
  you...      will   sqeeze...


Pre-Chorus:
  F                  G                 Am                C
e|-----------------|-----------------|-----------------|-----------------|
B|-0-0-0-1-1-1-1-1-|-1-1-3-3-1-1-0-0-|-0-0-0-1-1-1-1-1-|-1-1-3-3-1-1-0-0-|
G|-2-2-2-2-2-2-2-2-|-0-0-0-0-0-0-0-0-|-2-2-2-2-2-2-2-2-|-0-0-0-0-0-0-0-0-|
D|-3-3-3-3-3-3-3-3-|-0-0-0-0-0-0-0-0-|-2-2-2-2-2-2-2-2-|-2-2-2-2-2-2-2-2-|
A|-----------------|-----------------|-----------------|-----------------|
E|-----------------|-----------------|-----------------|-----------------|
  bury it...

  F                 G                 Am                C
e|-----------------|-----------------|-----------------|----------------------|
B|-0-0-0-1-1-1-1-1-|-1-1-3-3-1-1-0-0-|-0-0-0-1-1-1-1-1-|----------------------|
G|-2-2-2-2-2-2-2-2-|-0-0-0-0-0-0-0-0-|-2-2-2-2-2-2-2-2-|------12-12-10-10-9-9-|
D|-3-3-3-3-3-3-3-3-|-0-0-0-0-0-0-0-0-|-2-2-2-2-2-2-2-2-|----------------------|
A|-----------------|-----------------|-----------------|------10-10--8--8-7-7-|
E|-----------------|-----------------|-----------------|----------------------|
  smother it....                                              our time is...

Chorus:
  F                         G*                        Am*               C
e|-------------------------|-------------------------|-----------------|---------------------|
B|-------------------------|-------------------------|-6-6-6-5-5-5-5-5-|---------------------|
G|--9--9--9--9--9--9--9--9-|-10-10--7--7--9--9-10-10-|-5-5-5-5-5-5-5-5-|-----12-12-10-10-9-9-|
D|-10-10-10-10-10-10-10-10-|-10-10-10-10-10-10-10-10-|-7-7-7-7-7-7-7-7-|-10------------------|
A|--8--8--8--8--8--8--8--8-|-10-10-10-10-10-10-10-10-|-7-7-7-7-7-7-7-7-|-10--10-10--8--8-7-7-|
E|--8--8--8--8--8--8--8--8-|-------------------------|-5-5-5-5-5-5-5-5-|--8------------------|
  running out...

 
  F                         G*                        Am*               C
e|-------------------------|-------------------------|-----------------|---------------------|
B|-------------------------|-------------------------|-6-6-6-5-5-5-5-5-|-------------------0-|
G|--9--9--9--9--9--9--9--9-|-10-10--7--7--9--9-10-10-|-5-5-5-5-5-5-5-5-|-----12-12-10-10-9-0-|
D|-10-10-10-10-10-10-10-10-|-10-10-10-10-10-10-10-10-|-7-7-7-7-7-7-7-7-|-10----------------0-|
A|--8--8--8--8--8--8--8--8-|-10-10-10-10-10-10-10-10-|-7-7-7-7-7-7-7-7-|-10--10-10--8--8-7-0-|
E|--8--8--8--8--8--8--8--8-|-------------------------|-5-5-5-5-5-5-5-5-|--8------------------|
  underground...                                                        how did it come to...

  Dm                Am                Dm                Am
e|-1-1-1-1-1-1-1-0-|-0-0-0-0-0-0-0-0-|-1-1-1-1-1-1-1-0-|-0-0-0-0-0-0-0-0-|
B|-3-3-3-3-3-3-3-0-|-1-1-1-1-1-1-1-0-|-3-3-3-3-3-3-3-0-|-1-1-1-1-1-1-1-0-|
G|-2-2-2-2-2-2-2-0-|-2-2-2-2-2-2-2-0-|-2-2-2-2-2-2-2-0-|-2-2-2-2-2-2-2-0-|
D|-0-0-0-0-0-0-0-0-|-2-2-2-2-2-2-2-0-|-0-0-0-0-0-0-0-0-|-2-2-2-2-2-2-2-0-|
A|---------------0-|-0-0-0-0-0-0-0-0-|---------------0-|-0-0-0-0-0-0-0-0-|
E|-----------------|-----------------|-----------------|-----------------|
  this? ooh, ooh, ooh...

  Dm                Am                E7
e|-1-1-1-1-1-1-1-0-|-0-0-0-0-0-0-0-0-|-----0-0-----0-0-|-----0-0-----0-0-|
B|-3-3-3-3-3-3-3-0-|-1-1-1-1-1-1-1-0-|-----0-0-----0-0-|-----0-0-----0-0-|
G|-2-2-2-2-2-2-2-0-|-2-2-2-2-2-2-2-0-|-1-1-1-1-1-1-1-1-|-1-1-1-1-1-1-1-1-|
D|-0-0-0-0-0-0-0-0-|-2-2-2-2-2-2-2-0-|-2-2-2-2-2-2-2-2-|-2-2-2-2-2-2-2-2-|
A|---------------0-|-0-0-0-0-0-0-0-0-|-2-2-----2-2-----|-2-2-----2-2-----|
E|-----------------|-----------------|-0-0-----0-0-----|-0-0-----0-0-----|
  yeah. ooh ooh ooh...                yeah.....


Bridge:
  Am                Bm                E                 F        G
e|-----------------|-----------------|-----------------|-----------------|
B|-----------------|-----------------|-----------------|-----------------|
G|-----------------|-----------------|-----------------|-----------------|
D|-----------------|-----------------|-----------------|-----------------|
A|-----------------|-----------5-5-6-|-----7-----7-7---|-----3-----5-5---|
E|-5-5-8-5-5-8-8-5-|-7-7-5-7-7-------|-0-0---0-0-----0-|-1-1---1-3-----3-|


Solo:
  Am                      B7#5                   E7                  F          G
e|-12----8-12----8-12----|-8-11----8-12----8-12-|---7-10---7-10---7-|-8-------8-10----8-10-|
B|----10------10------10-|------10------10------|-9------9------9---|---10-12------12------|
G|-----------------------|----------------------|-------------------|----------------------|
D|-----------------------|----------------------|-------------------|----------------------|
A|-----------------------|----------------------|-------------------|----------------------|
E|-----------------------|----------------------|-------------------|----------------------|

  Am                      B7#5                   E7                  F          G
e|-12----8-12----8-12----|-8-11----8-12----8-12-|---7-10---7-10---7-|-8-------8-10----8-10-|
B|----10------10------10-|------10------10------|-9------9------9---|---10-12------12------|
G|-----------------------|----------------------|-------------------|----------------------|
D|-----------------------|----------------------|-------------------|----------------------|
A|-----------------------|----------------------|-------------------|----------------------|
E|-----------------------|----------------------|-------------------|----------------------|
  you...            will   suck...

Pre-Chorus:
  F                  G                 Am                C
e|-----------------|-----------------|-----------------|-----------------|
B|-0-0-0-1-1-1-1-1-|-1-1-3-3-1-1-0-0-|-0-0-0-1-1-1-1-1-|-1-1-3-3-1-1-0-0-|
G|-2-2-2-2-2-2-2-2-|-0-0-0-0-0-0-0-0-|-2-2-2-2-2-2-2-2-|-0-0-0-0-0-0-0-0-|
D|-3-3-3-3-3-3-3-3-|-0-0-0-0-0-0-0-0-|-2-2-2-2-2-2-2-2-|-2-2-2-2-2-2-2-2-|
A|-----------------|-----------------|-----------------|-----------------|
E|-----------------|-----------------|-----------------|-----------------|
  bury it...

  F                 G                 Am                C
e|-----------------|-----------------|-----------------|----------------------|
B|-0-0-0-1-1-1-1-1-|-1-1-3-3-1-1-0-0-|-0-0-0-1-1-1-1-1-|----------------------|
G|-2-2-2-2-2-2-2-2-|-0-0-0-0-0-0-0-0-|-2-2-2-2-2-2-2-2-|------12-12-10-10-9-9-|
D|-3-3-3-3-3-3-3-3-|-0-0-0-0-0-0-0-0-|-2-2-2-2-2-2-2-2-|----------------------|
A|-----------------|-----------------|-----------------|------10-10--8--8-7-7-|
E|-----------------|-----------------|-----------------|----------------------|
  smother it....                                              our time is...


 
Chorus:
  F                         G*                        Am*               C
e|-------------------------|-------------------------|-----------------|---------------------|
B|-------------------------|-------------------------|-6-6-6-5-5-5-5-5-|---------------------|
G|--9--9--9--9--9--9--9--9-|-10-10--7--7--9--9-10-10-|-5-5-5-5-5-5-5-5-|-----12-12-10-10-9-9-|
D|-10-10-10-10-10-10-10-10-|-10-10-10-10-10-10-10-10-|-7-7-7-7-7-7-7-7-|-10------------------|
A|--8--8--8--8--8--8--8--8-|-10-10-10-10-10-10-10-10-|-7-7-7-7-7-7-7-7-|-10--10-10--8--8-7-7-|
E|--8--8--8--8--8--8--8--8-|-------------------------|-5-5-5-5-5-5-5-5-|--8------------------|
  running out...

  F                         G*                        Am*               C
e|-------------------------|-------------------------|-----------------|---------------------|
B|-------------------------|-------------------------|-6-6-6-5-5-5-5-5-|-------------------0-|
G|--9--9--9--9--9--9--9--9-|-10-10--7--7--9--9-10-10-|-5-5-5-5-5-5-5-5-|-----12-12-10-10-9-0-|
D|-10-10-10-10-10-10-10-10-|-10-10-10-10-10-10-10-10-|-7-7-7-7-7-7-7-7-|-10----------------0-|
A|--8--8--8--8--8--8--8--8-|-10-10-10-10-10-10-10-10-|-7-7-7-7-7-7-7-7-|-10--10-10--8--8-7-0-|
E|--8--8--8--8--8--8--8--8-|-------------------------|-5-5-5-5-5-5-5-5-|--8------------------|
  underground...                                                        how did it come to...

  Dm                Am                Dm                Am
e|-1-1-1-1-1-1-1-0-|-0-0-0-0-0-0-0-0-|-1-1-1-1-1-1-1-0-|-0-0-0-0-0-0-0-0-|
B|-3-3-3-3-3-3-3-0-|-1-1-1-1-1-1-1-0-|-3-3-3-3-3-3-3-0-|-1-1-1-1-1-1-1-0-|
G|-2-2-2-2-2-2-2-0-|-2-2-2-2-2-2-2-0-|-2-2-2-2-2-2-2-0-|-2-2-2-2-2-2-2-0-|
D|-0-0-0-0-0-0-0-0-|-2-2-2-2-2-2-2-0-|-0-0-0-0-0-0-0-0-|-2-2-2-2-2-2-2-0-|
A|---------------0-|-0-0-0-0-0-0-0-0-|---------------0-|-0-0-0-0-0-0-0-0-|
E|-----------------|-----------------|-----------------|-----------------|
  this? ooh, ooh, ooh...

  Dm                Am                E7
e|-1-1-1-1-1-1-1-0-|-0-0-0-0-0-0-0-0-|-----0-0-----0-0-|-----0-0-----0-0-|
B|-3-3-3-3-3-3-3-0-|-1-1-1-1-1-1-1-0-|-----0-0-----0-0-|-----3-3-----3-3-|
G|-2-2-2-2-2-2-2-0-|-2-2-2-2-2-2-2-0-|-1-1-1-1-1-1-1-1-|-1-1-4-4-1-1-4-4-|
D|-0-0-0-0-0-0-0-0-|-2-2-2-2-2-2-2-0-|-2-2-2-2-2-2-2-2-|-2-2-6-6-2-2-6-6-|
A|---------------0-|-0-0-0-0-0-0-0-0-|-2-2-----2-2-----|-2-2-7-7-2-2-7-7-|
E|-----------------|-----------------|-0-0-----0-0-----|-0-0-----0-0-----|
  yeah. ooh ooh ooh...                yeah.....


 End:
e|-----------------|-----------------|-----------------|-----------------|
B|-----------------|-----------------|-----------------|-----------------|
G|-----------------|-----------------|-----------------|-----------------|
D|-14--------------|-13--------------|-12--------------|-10--------------|
A|-----------------|-----------------|-----------------|-----------------|
E|-12--------------|-11--------------|-10--------------|--8--------------|
  tremolo picking________________________________________________________|

            
            
Suggest correction
Creating personal tab
Creating personal tab
You can edit any tab online and save it as your Personal.

You can edit, replace or remove any tab part or add personal notes – all changes will be seen only by you.

Personal tabs can be accessed anytime from any device, even offline.
Learn more »
comments
print report bad tab
3 comments total.
0 reply
hellbassist1 1,535 Mar 13, 2005 07:00 PM

This tab is ok but that bit at the start the intro is done on the bass guitar

0 reply
sadistic_monkey 20 Mar 13, 2005 07:00 PM

Its taken from the book, so it's gonna be perfect.

0 reply
Uncommonresults 480 Mar 13, 2005 07:00 PM

the beginning is bass you can tel by just looking at the music video and listening to the song but other wise nice

guest
Wanna post a correction for this tab? Suggest correction